Guitaretab - guitar tabs
Song name
# A B C D E F G H I J K L M N O P Q R S T U V W X Y Z

A Day To Remember - Plot To Bomb The Panhandle tab

Alright this song is kick ass really simple i doubt it but if u have any corrections 
it to me at fvans69@aol.com

Drop D tuning
lead guitar
INTRO 00:08
e:-------------------------------------------------------------|
b:-------------------------------------------------------------|
g:---------3333333333----------333333--------------------------|whole thing 4 times
D:---5-5-----------------5-5-----------5-\-1-------------------|
A:---5-5-----------------5-5-----------5-\-1-------------------|
D:---5-5-----------------5-5-----------5-\-1-------------------|

Post Intro 00:27
e:--------------------------------------------------------------------------|
b:--------------------------------------------------------------------------|
g:--------------------------------------------------------------------------|
D:----5-5--7\8-----0-0-5-7\8~-----------------------------------------------|
A:----5-5--7\8-----0-0-5-7\8~-----------------------------------------------|
D:----5-5--7\8-----0-0-5-7\8~-----------------------------------------------|

Verse 00:31
e:--------------------------------------------------------------------------|
b:--------------------------------------------------------------------------|
g:--------------------------------------------------------------------------|
D:------55555555-00000000-111111111111-55555555--88888888-------------------|
A:------55555555-00000000-111111111111-55555555--88888888-------------------|
D:------55555555-00000000-111111111111-55555555--88888888-------------------|

e:---------------------|
b:---------------------|
g:---------------------|
D:-----3~-33x33x33x33\-|
A:-----3~-33x33x33x33\-|
D:-----3~-33x33x33x33\-|

e:--------------------------------------------------------------------------|
b:--------------------------------------------------------------------------|
g:--------------------------------------------------------------------------|
D:------55555555-00000000-111111111111-55555555--88888888---3~~-------------|
A:------55555555-00000000-111111111111-55555555--88888888---3~~-------------|
D:------55555555-00000000-111111111111-55555555--88888888---3~~-------------|
[ Tab from: http://www.guitaretab.com/a/a-day-to-remember/85421.html ]
Pre-Chorus 00:51
Stacatto(Short and end Abruptly)
The Close 1's are not to be confused with the number 11
e:--------------------------------------------------------------------------|
b:--------------------------------------------------------------------------|
g:--------------------------------------------------------------------------|
D:------11--11--11--11--1111\--55--55--55--55--5555/--11--11--11--11--1111\-|
A:------11--11--11--11--1111\--55--55--55--55--5555/--11--11--11--11--1111\-|
D:------11--11--11--11--1111\--55--55--55--55--5555/--11--11--11--11--1111\-|

e:--------------------------------------------------------------------------|
b:--------------------------------------------------------------------------|
g:--------------------------------------------------------------------------|
D:-------55--55\--88--88--8888/-11--11--11--11-1111\-55-55--55--55--5555/---|
A:-------55--55\--88--88--8888/-11--11--11--11-1111\-55-55--55--55--5555/---|
D:-------55--55\--88--88--8888/-11--11--11--11-1111\-55-55--55--55--5555/---|

e:--------------------------------------------------------------------------|
b:--------------------------------------------------------------------------|
g:--------------------------------------------------------------------------|
D:-------11--11--11--11--1111\--33--33--00--00--0000--1~---1~---------------|
A:-------11--11--11--11--1111\--33--33--00--00--0000--1~---1~---------------|
D:-------11--11--11--11--1111\--33--33--00--00--0000--1~---1~---------------|

Chorus 01:15
e:---------------------------------------------------------------------------|
b:---------------------------------------------------------------------------|
g:---------------------------------------------------------------------------|
D:-------55555555555555/11111111111111\88888888888888/333333\444444----------|  Whole
A:-------55555555555555/11111111111111\88888888888888/333333\444444----------|  Thing
D:-------55555555555555/11111111111111\88888888888888/333333\444444----------|  2 Times

End on
e:----------|
b:----------|
g:----------|
D:-------5~-|
A:-------5~-|
D:-------5~-|

-INTRO-again- 01:37

-Post Intro-again- 01:58

-Verse-again- 02:02

-Pre Chorus-again- 02:22

-Chorus-again- 02:45

Bridge 03:05

e:--------------------------------------------------------------------------|
b:--------------------------------------------------------------------------|
g:--------------------------------------------------------------------------|
D:-------5~-------1~------5~------1~-----5~---111-111-111-111-111-111-111---|
A:-------5~-------1~------5~------1~-----5~---111-111-111-111-111-111-111---|
D:-------5~-------1~------5~------1~-----5~---111-111-111-111-111-111-111---|

e:--------------------------------------------------|
b:--------------------------------------------------|
g:--------------------------------------------------|
D:-------111--5~--0~--1~--111-5~--0~--1~--1-3333-5--| Whole Thing 2 Times
A:-------111--5~--0~--1~--111-5~--0~--1~--1-3333-5--| Then Another 2 Times
D:-------111--5~--0~--1~--111-5~--0~--1~--1-3333-5--| Only Top Sting

-Outro-(Intro)- 03:48
Related for Plot To Bomb The Panhandle tab
Plot To Bomb The Panhandle chords by A Day To Remember