Song name
# A B C D E F G H I J K L M N O P Q R S T U V W X Y Z

A Day To Remember - Show Em The Ropes tab

Artist: A Day To Remember
Song: Show 'Em The Ropes
Album: For Those Who Have A Heart
Tune-age: Dropped C (low to high) CGCFAD

Key:
~ = Ring Out
x = Dead Note
\ = Slide Down
h = Hammer On
p = Pull Off
* = Artificial Harmonic
V = Vibrato
P = Palm Mute


Intro.
D|-----------------------------------------------------------------|
A|-----------------------------------------------------------------|
F|-----------------------------------------------------------------|
C|----------------33~333~333~333~3----------------55~555~555~555~5~| x2
G|00~000~000~000~011~111~111~111~133~333~333~333~333~333~333~333~3~|
C|00~000~000~000~0----------------33~333~333~333~3-----------------|
 
Pre-Verse:
D|------------------------|
A|------------------------|
F|7~~~~10~~~~-------------|
C|x----x-----8\0~~~~~0~~~~|
G|5~~~~8~~~~~8\0~~~~~0~~~~|
C|-----------8\0~~~~~0~~~~|
                             
Verse:
D|-----------------------|   |-----------------------|   |--------------------|
A|-----------------------|   |-----------------------|   |--------------------|
F|-----------------------|   |-----------------------|   |--------------------|
C|-----------------------|x2 |-----------------------|x2 |--------------------|
G|0~00000-00000-000-0-0-0|   |5~55555-55555-555-5-5-5|   |7~08070507h8p7h810*V|
C|0~00000-00000-000-0-0-0|   |5~55555-55555-555-5-5-5|   |--------------------|
    PPPPP PPPPP PPP P P P       PPPPP PPPPP PPP P P P
D|-----------------------|   |-----------------------|   |------------------|
A|-----------------------|   |-----------------------|   |------------------|
F|-----------------------|   |-----------------------|   |------------------|
C|-----------------------|x2 |-----------------------|x2 |----------------8\|
G|0~00000-00000-000-0-0-0|   |5~55555-55555-555-5-5-5|   |7~08070507h8p7h88\|
C|0~00000-00000-000-0-0-0|   |5~55555-55555-555-5-5-5|   |----------------8\|
    PPPPP PPPPP PPP P P P       PPPPP PPPPP PPP P P P
Chorus:
D|-------------------------------------------------------------------|
A|-------------------------------------------------------------------|
F|-------------------------------------------------------------------|
C|7~77~777~777~777~3-33-333-333-333---------------------------5555555| x2
G|5~55~555~555~555~1~11~111~111~111~5~55~555~555~555~8~88~888~3333333|
C|----------------------------------5~55~555~555~555~8~88~888~-------|

Pre-Verse:
D|-------------------------------------------------------|
A|-------------------------------------------------------|
F|-------------------------------------------------------|
C|-------------------------------------------------------| X2
G|0~0~00~00~00008~8~88~88~88883~3~33~33~3333~3~3~332~2~22|
C|0~0~00~00~00008~8~88~88~88883~3~33~33~3333~3~3~332~2~22|

Verse
Chorus
Pre-Verse

Outro.
D|-------------------------|--------------------------------|
A|-------------------------|--------------------------------|
F|-------------------------|--------------------------------|
C|0~~~~~~~~----0~~~~~~~~~~0|--------------------------------|
G|0~~~~~~~~00--0~~~~~~~~~~0|000~0~0~00000000000~0~0~~000-000|
C|0~~~~~~~~00--0~~~~~~~~~~0|000~0~0~00000000000~0~0~~000-000|
           PP               PPP P P PPPPPPPPPPP P P  PPP PPP
                            \______________x4______________/
Tap to rate this tab
# A B C D E F G H I J K L M N O P Q R S T U V W X Y Z