Song name
# A B C D E F G H I J K L M N O P Q R S T U V W X Y Z

A Different Breed Of Killer - Axadentist tab

A Different Breed Of Killer - Rise Records
www.myspace.com/adifferentbreedofkiller
You can go this in either seven string or six string dropped down.
Doesn't matter, they don't go high.
picking amounts are not exact.
song goes in order.
figure out repeats.
PM - X
PH - *

b |-------------------------------------------------|
f#|-------------------------------------------------|
D |-------------------------------------------------|
A |-------------------------------------------------|
E |-------3-------2----1----------------------------|
A |-23-23---23-23---23------------------------------|



b |-------------------------------------------------|
f#|-------------------------------------------------|
D |-------------------------------------------------|
A |-------------------------------------------------|
E |--2-3--3--2-3-2----------------------------------|
A |--2-3-----2-3------------------------------------|


b |-------------------------------------------------|
f#|-------------------------------------------------|
D |-------------------------------------------------|
A |-------------------------------------------------|
E |------88-77------666-----------------------------|
A |--777-------666----------------------------------|


b |-------------------------------------------------|
f#|-------------------------------------------------|
D |---10-9-----8------------------------------------|
A |---------6---------------------------------------|
E |-7-8--7--6--6------------------------------------|
A |-7-------6---------------------------------------|


b |-------------------------------------------------|
f#|-------------------------------------------------|
D |-------------------------------------------------|
A |-------------------------------------------------|
E |-0-2-3210-4-3---------------44-3-----------------|
A |-0-2-3210-----3---0-2-3210-------3---------------|
PM  X X XXXX * * *   X X XXXX   


b |-------------------------------------------------|
f#|----------10-------9-10----10-------13-10--------|
D |------------12----------------12-----------------|
A |-0-----00-------00------00-------00--------------|
E |-0-----------------------------------------------|
A |-0-----------------------------------------------|
PM        XX       XX      XX       XX


b |-------------------------------------------------|
f#|----------10-------9-10----13-10-9-10-9-8--------|
D |------------12-----------------------------------|
A |-0-----00-------00------00-----------------------|
E |-0-----------------------------------------------|
A |-0-----------------------------------------------|
PM        XX       XX      XX       

b |-------------------------------------------------|
f#|-------------------------------------------------|
D |-------------------------------------------------|
A |-------------------------------------------------|
E |-------------------------------------------------|
A |-0-0-0-0-----------------------------------------|

b |-------------------------------------------------|
f#|-------------------------------------------------|
D |-------------------------------------------------|
A |-------------------------------------------------|
E |-0-0-0-0-----------------------------------------|
A |-0-0-0-0-----------------------------------------|

This is tapping
b |-------------------------------------------------|
f#|-------------------------------------------------|
D |-------------------------------------------------|
A |-15-12-15-12-15-12-15-12-14-12-14-12-14-12-14-12-|
E |-------------------------------------------------|
A |-------------------------------------------------|

b |--------------------------------------------------------------|
f#|--------------------------------------------------------------|
D |--------------------------15-12-15-12-15-12-14-12-14-12-14-12-|
A |-15-12-15-12-15-12-15-12--------------------------------------|
E |--------------------------------------------------------------|
A |--------------------------------------------------------------|





Tap to rate this tab
# A B C D E F G H I J K L M N O P Q R S T U V W X Y Z