Song name
# A B C D E F G H I J K L M N O P Q R S T U V W X Y Z

A Different Breed Of Killer - Accidentist tab

b |------------------------------------------------|
f#|----10--------10-11-------10--------13-11-------|
D |-------12--------------------12-----------------|
A |-00--------00-------00----------00--------------|
E |------------------------------------------------|
A |------------------------------------------------|

b |------------------------------------------------|
f#|----- 10-------10-11------13-11-10-11-10-8------|
D |--------12--------------------------------------|
A |---00-------00-------00-------------------------|
E |------------------------------------------------|
A |------------------------------------------------|

b |-------------------------------------------------|
f#|----10--------10-11-------10---------13-11-------|
D |-------12--------------------12------------------|
A |-00--------00-------00------------00-------------|
E |-------------------------------------------------|
A |-------------------------------------------------|

b |------------------------------------------------|
f#|----- 10-------10-11------13-11-10-11-10~-------|
D |--------12--------------------------------------|
A |---00-------00-------00-------------------------|
E |------------------------------------------------|
A |------------------------------------------------|

After two times through the chugs come in,
which is easy enough to work out. You play the riff 6
times through, if you break the riff up into two parts
its 12 times, but whatever, you'll get the idea. Took
me like a minute to work out, but unlike the other tab
its deffinatly right.
This band are awesome, buy their album.
Tap to rate this tab
 
# A B C D E F G H I J K L M N O P Q R S T U V W X Y Z