Song name
# A B C D E F G H I J K L M N O P Q R S T U V W X Y Z

A Faith Called Chaos - Forgive Nothing tab

Tabbed by: Dorplein

Tuning: Standard

Wanted to play this but found no tabs, don't know if it's right and this is 
my first tab so comment please. 
Figure out for yourself how often and where you need to do these things.

  Intro/Verse:
e|---------------------------------------------------------------------------|
B|---------------------------------------------------------------------------|
G|---------------------------------------------------------------------------|
D|---------------------------------------------------------------------------|
A|---------------------17-17-0-0-15-15-0-0-----------------------------------|
E|-17-17-0-0-15-15-0-0-------------------------------------------------------|



  Bridge:
e|---------------------------------------------------------------------------|
B|---------------------------------------------------------------------------|
G|---------------------------------------------------------------------------|
D|-14-14-14-14-14-13-13-0-10-10-10-10-10-10-10-10----------------------------|
A|---------------------------------------------------------------------------|
E|---------------------------------------------------------------------------|

  Chorus:
e|---------------------------------------------------------------------------|
B|---------------------------------------------------------------------------|
G|---------------------------------------------------------------------------|
D|---------------------------------------------------------------------------|
A|----------------15\-3-3-3-0-0-0--------------------------------------------|
E|-17\-5-5-5-0-0-0-----------------------------------------------------------|



  Bridge2 (Not really sure about this part, 
I think it's just allot of distortion for the 10's and for the second note
 I'm not sure about the string 2 fret 7. 
I think it's one of these 2, choose for yourself) She plays this one 4 times:
e|---------------------------------------------------------------------------|
B|---------------------------------------------------------------------------|
G|---------------------------------------------------------------------------|
D|---------------------------------------------------------------------------|
A|-10-10-10-10-10-7-------------------or--10-10-10-10-10---------------------|
E|----------------0--------------------------------------0-------------------|

  Brigdge3 Then she does the same, but with a different stroke(just listen to 
the song very carefully and hear what I mean) 
She also playes this one 4 times.
e|---------------------------------------------------------------------------|
B|---------------------------------------------------------------------------|
G|---------------------------------------------------------------------------|
D|---------------------------------------------------------------------------|
A|-10-10-10-101010-7-------------------or--10-10-10-101010-------------------|
E|-----------------0--------------------------------------0------------------|


  And then: 
e|---------------------------------------------------------------------------|
B|---------------------------------------------------------------------------|
G|---------------------------------------------------------------------------|
D|---------------------------------------------------------------------------|
A|-8-8-8-8-8-7---------------------------------------------------------------|
E|---------------------------------------------------------------------------|

Bridge2 again

  Just repeat the 8 a lot of times, listen to the song to know how often.
e|---------------------------------------------------------------------------|
B|---------------------------------------------------------------------------|
G|---------------------------------------------------------------------------|
D|---------------------------------------------------------------------------|
A|-8-8-8-8-------------------------------------------------------------------|
E|---------------------------------------------------------------------------|

Intro/Verse

Chorus

| /  slide up
| \  slide down
| h  hammer-on
| p  pull-off
| ~  vibrato
| +  harmonic
| x  Mute note
===============================================================================
Tap to rate this tab
 
# A B C D E F G H I J K L M N O P Q R S T U V W X Y Z