Guitaretab - guitar tabs
Song name
# A B C D E F G H I J K L M N O P Q R S T U V W X Y Z

A Flock Of Seagulls - Telecommunication tab

(Muted string - add light distorsion, chorus and delay)

E|---------------------------------------------------|
B|---------------------------------------------------|
G|---------------------------------------------------|
D|-7--7--7--7--7--7--7--7--7--7--7--7--7--7--7--7--7-|
A|---------------------------------------------------|
E|---------------------------------------------------|

Ultraviolet
...

(Figure 2)
(still muting the strings)
thinking telecommunication, ...

|-----------------------------------------------------------------|
|-----------------------------------------------------------------|
|---------9-9-7-6---------9-9-7-6---------9-9-7-6---------9-9-7-6-|
|-7-7-7-7---------7-7-7-7---------7-7-7-7---------7-7-7-7---------|
|-----------------------------------------------------------------|
|-----------------------------------------------------------------|


(Same as figure 1, but play D instead of A)
(string 5, step 5 instead of string 4, step 7)
(keep muting the string)
laser ....

[ Tab from: http://www.guitaretab.com/a/a-flock-of-seagulls/124920.html ]
(Same As figure 2, but let ring)
thinking
telecommunication, ....

(Same as figure 1, playing D instead of A)
(muting the string again)
video dream....

repeat chorus (no more muting!)

Solo:

|---------------------------------------------------------------|
|--------7--7-7--8--7-8--7-8-7----------7-7-7-7-8-8-7-8-8-7-8-7-|
|---------------------------------------------------------------|
|-9--9-9------------------------9-9-9-9-------------------------|
|---------------------------------------------------------------|
|---------------------------------------------------------------|


Repeat chorus, then play this twice:

|-------------12-12-10-9-------------12-12-10-9-|
|-10-10-10-10------------10-10-10-10------------|
|-----------------------------------------------|
|-----------------------------------------------|
|-----------------------------------------------|
|-----------------------------------------------|

telecommunication, telecommunication

Repeat solo, chorus, and at the end of the song mute the string again
playing D (string 5, fret 5).

................
Related for Telecommunication tab