Song name
# A B C D E F G H I J K L M N O P Q R S T U V W X Y Z

A Flock Of Seagulls - Dna tab

-------------------------------------------------------------------------------
D.N.A. - A Flock of Seagulls
-------------------------------------------------------------------------------

Tabbed by: VathekNet
Email: vatheknet@hotmail.com
Tuning: 

First time creating a tab, enjoy. Send fixes as you find them.

Intro

e|--------10---18-----------------10---18------------------------------------|
B|-----8-----------20----------8-----------20--------------------------------|
G|--7------------------17---7------------------17----------------------------|
D|---------------------------------------------------------------------------|
A|---------------------------------------------------------------------------|
E|---------------------------------------------------------------------------|

PART 1

e|--15--13--12----------15--13--12-------------------------------------------|
B|--------------13-------------------13--15----------------------------------|
G|------------------12-----------------------12--12----??--??----------------|
D|---------------------------------------------------------------------------|
A|---------------------------------------------------------------------------|
E|---------------------------------------------------------------------------|

e|--15--13--12----------15--13--12-------------------------------------------|
B|--------------13-------------------13--15----------------------------------|
G|------------------12-----------------------12--12--------------------------|
D|---------------------------------------------------------------------------|
A|---------------------------------------------------------------------------|
E|---------------------------------------------------------------------------|

e|---------------------------------------------------------------------------|
B|---------------------------------------------------------------------------|
G|---------------------------------------------------------------------------|
D|---------------------------------------------------------------------------|
A|--1 / 8--7--8--7--8--7--8---10---------------------------------------------|
E|--------------------------------10 \ 3-------------------------------------|

e|---------------------------------------------------------------------------|
B|---------------------------------------------------------------------------|
G|-----------------------------------------------------------4---------------|
D|--------------------------------------------------------6------------------|
A|--1 / 8--7--8--7--8--7--8---10-----------------------5---------------------|
E|--------------------------------10 \ 3-------------------------------------|

PART 2

e|--15--13--12----------15--13--12-------------------------------------------|
B|--------------13-------------------13--15----------------------------------|
G|------------------12-----------------------12--12-----??--??---------------|
D|---------------------------------------------------------------------------|
A|---------------------------------------------------------------------------|
E|---------------------------------------------------------------------------|

e|--15--13--12----------15--13--12-------------------------------------------|
B|--------------13-------------------13--15----------------------------------|
G|------------------12-----------------------12--12--------------------------|
D|---------------------------------------------------------------------------|
A|---------------------------------------------------------------------------|
E|---------------------------------------------------------------------------|

e|---------------------------------------------------------------------------|
B|---------------------------------------------------------------------------|
G|---------------------------------------------------------------------------|
D|---------------------------------------------------------------------------|
A|--1 / 8--7--8--7--8--7--8---10---------------------------------------------|
E|--------------------------------10 \ 3-------------------------------------|

e|---------------------------------------------------------------------------|
B|---------------------------------------------------------------------------|
G|-----------------------------------------------------------4---------------|
D|--------------------------------------------------------6------------------|
A|--1 / 8--7--8--7--8--7--8---10-----------------------5---------------------|
E|--------------------------------10 \ 3-------------------------------------|

PART 3

e|--14--10------14--10-------------------------------------------------------|
B|----------10----------10---14--10------------------------------------------|
G|-----------------------------------9-----------------??--??--??------------|
D|---------------------------------------------------------------------------|
A|---------------------------------------------------------------------------|
E|---------------------------------------------------------------------------|

e|--14--10------14--10-------------------------------------------------------|
B|----------10----------10---14--10------------------------------------------|
G|-----------------------------------9-----------------??--??----------------|
D|---------------------------------------------------------------------------|
A|---------------------------------------------------------------------------|
E|---------------------------------------------------------------------------|

e|--15--13--12----------15--13--12-------------------------------------------|
B|--------------13-------------------13--15----------------------------------|
G|------------------12-----------------------12--12----??--??----------------|
D|---------------------------------------------------------------------------|
A|---------------------------------------------------------------------------|
E|---------------------------------------------------------------------------|

e|--15--13--12----------15--13--12-------------------------------------------|
B|--------------13-------------------13--15----------------------------------|
G|------------------12-----------------------12--12--------------------------|
D|---------------------------------------------------------------------------|
A|---------------------------------------------------------------------------|
E|---------------------------------------------------------------------------|

e|---------------------------------------------------------------------------|
B|---------------------------------------------------------------------------|
G|---------------------------------------------------------------------------|
D|---------------------------------------------------------------------------|
A|--1 / 8--7--8--7--8--7--8---10---------------------------------------------|
E|--------------------------------10 \ 3-------------------------------------|

e|---------------------------------------------------------------------------|
B|---------------------------------------------------------------------------|
G|-----------------------------------------------------------4---------------|
D|--------------------------------------------------------6------------------|
A|--1 / 8--7--8--7--8--7--8---10-----------------------5---------------------|
E|--------------------------------10 \ 3-------------------------------------|

PART 4

e|--14--10------14--10-------------------------------------------------------|
B|----------10----------10---14--10------------------------------------------|
G|-----------------------------------9-----------------??--??----------------|
D|---------------------------------------------------------------------------|
A|---------------------------------------------------------------------------|
E|---------------------------------------------------------------------------|

e|--14--10------14--10-------------------------------------------------------|
B|----------10----------10---14--10------------------------------------------|
G|-----------------------------------9-----------------??--??----------------|
D|---------------------------------------------------------------------------|
A|---------------------------------------------------------------------------|
E|---------------------------------------------------------------------------|

e|--15--13--12----------15--13--12-------------------------------------------|
B|--------------13-------------------13--15----------------------------------|
G|-------------------------------------------12--12----??--??----------------|
D|---------------------------------------------------------------------------|
A|---------------------------------------------------------------------------|
E|---------------------------------------------------------------------------|

e|--15--13--12----------15--13--12-------------------------------------------|
B|--------------13-------------------13--15----------------------------------|
G|------------------12-----------------------12--12--------------------------|
D|---------------------------------------------------------------------------|
A|---------------------------------------------------------------------------|
E|---------------------------------------------------------------------------|

e|---------------------------------------------------------------------------|
B|---------------------------------------------------------------------------|
G|---------------------------------------------------------------------------|
D|---------------------------------------------------------------------------|
A|--1 / 8--7--8--7--8--7--8---10---------------------------------------------|
E|--------------------------------10 \ 3-------------------------------------|

e|---------------------------------------------------------------------------|
B|---------------------------------------------------------------------------|
G|-----------------------------------------------------------4---------------|
D|--------------------------------------------------------6------------------|
A|--1 / 8--7--8--7--8--7--8---10-----------------------5---------------------|
E|--------------------------------10 \ 3-------------------------------------|
Tap to rate this tab
 
# A B C D E F G H I J K L M N O P Q R S T U V W X Y Z