Song name
# A B C D E F G H I J K L M N O P Q R S T U V W X Y Z

A Global Threat - Maine Punx tab

E-------------|
B-------------|
G-44----4444--|
D-44-55-4444--| x4
A-22-55-2222--|
E----33-------|

E------------------------|
B------------------------|
G-4444-------------------|
D-4444-4444-5555-4444----|
A-2222-4444-5555-4444----|
E------2222-3333-2222----|

E------------------------|
B------------------------|
G-4444-------------------|
D-4444-5555-4444-5-5-5---|
A-2222-5555-4444-5-5-5---|
E------3333-2222-3-3-3---|

E------------------------|
B------------------------|
G-4444-------------------|
D-4444-4444-5555-4444----|
A-2222-4444-5555-4444----|
E------2222-3333-2222----|

E------------------------|
B------------------------|
G-4444-------------------|
D-4444-5555-4444-5555----|
A-2222-5555-4444-5555----|
E------3333-2222-3333----|

E-------------|
B-------------|
G-44----4444--|
D-44-55-4444--| x
A-22-55-2222--|
E----33-------|

E--------------|
B--------------|
G-4-4-4~-------|
D-4-4-4~-4~----| x1
A-2-2-2~-4~----|
E--------2~----|

I dont know if its right just try it and fix it if it doesnt sound right..


Tap to rate this tab
# A B C D E F G H I J K L M N O P Q R S T U V W X Y Z