Song name
# A B C D E F G H I J K L M N O P Q R S T U V W X Y Z

A Global Threat - Power tab

Standard Tuning


Pick Slide


Verse 1
|------------|
|------------|
|-4-4-7------|
|-4-4-7-7----|
|-2-2-5-7----|
|-------5----|

Verse 2

|----------|
|----------|
|-7-7-9-9--|
|-7-7-9-9--|
|-5-5-7-7--|
|----------|

Bridge
  
|---------------------------------------|
|---------------------------------------|
|-4-4-4-4-4-4-4-4-4-7-7-7-7-7-7-7-7-7---|
|-4-4-4-4-4-4-4-4-4-7-7-7-7-7-7-7-7-7---|
|-2-2-2-2-2-2-2-2-2-5-5-5-5-5-5-5-5-5---|
|---------------------------------------|
  ~~~~~~PM~~~~~~~~~

Chorus
|--------------------------|
|--------------------------|
|--------------------------|
|-5-5-5-5-7-7-7-7-9-9-9-9--|
|-5-5-5-5-7-7-7-7-9-9-9-9--|
|-3-3-3-3-5-5-5-5-7-7-7-7--|


Order

Pick Slide
Verse 1   X3
Verse 2   X1
Verse 1   X3
Verse 2   X1
Bridge    X1
Chorus    X4
Verse 1   X3
Verse 2   X1
Verse 1   X3
Verse 2   X1
Bridge    X1
Chorus    X4

Tap to rate this tab
# A B C D E F G H I J K L M N O P Q R S T U V W X Y Z