Guitaretab - guitar tabs
Song name
# A B C D E F G H I J K L M N O P Q R S T U V W X Y Z

A Global Threat - My Neighbors tab

intro/verst:
e|------------------------------------------------------------------------|
B|------------------------------------------------------------------------|
G|-5---6------------------------------------------------------------------|
D|-5-5-6-3-5--------------------------------------------------------------|
A|-3-5-4-3-5--------------------------------------------------------------|
E|---3---1-3--------------------------------------------------------------|
[ Tab from: http://www.guitaretab.com/a/a-global-threat/61989.html ]
chorus:
e|------------------------------------------------------------------------|
B|------------------------------------------------------------------------|
G|---7-8------------------------------------------------------------------|
D|-6-7-8-6-5--------------------------------------------------------------|
A|-6-5-6-6-5--------------------------------------------------------------|
E|-4-----4-3--------------------------------------------------------------|

repeat the verse and then repeat the chorus.some parts are hard to hear.

questions? crust_and_anguish_life@yahoo.com
Related for My Neighbors tab
My Neighbors chords by A Global Threat