Song name
# A B C D E F G H I J K L M N O P Q R S T U V W X Y Z

A Global Threat - Wheres The Money Gone tab

where's the money gone - a global threat
standart
h=harmonics
for corrections or wtv write me to diablotoxiti@hotmail.com hope u enjoy the tab is easy 
play and is a fuckin good song by agt..
cheers oi oi oi!


intro/verse
*--------------------------------------------------------------|
*--------------------------------------------------------------|
*--------------------------------------------------------------|
*-------------9--8--4------------------------------------------|
*-------------7--6--2--6--4------------------------------------|
*--7h-7h 7h -----------4--2------------------------------------|

chorus
*--------------------------------------------------------------|
*--------------------------------------------------------------|
*--------------------------------------------------------------|
*--------------------------------------------------------------|
*-4--6-----8----4--6--8--4--6-----8--4--6----------------------|
*-2--4--8--6----2--4--6--2--4--8--6--2--4--4-------------------|
*-------6----------------------6-----------2-------------------|


interlude/solo?
*-------------------------------------------------------------------|
*-------------------------------------------------------------------|
*-------------------------------------------------------------------|
*---------------6-6-----------------6-6-----------------------------|
*-9-9h---3-4-3--4-4---6--6h--3-4-3--4-4-----------------------------|
*-7-7h---1-2-1--------4--4h--1-2-1----------------------------------|  X4

chorus
Tap to rate this tab
# A B C D E F G H I J K L M N O P Q R S T U V W X Y Z