Song name
# A B C D E F G H I J K L M N O P Q R S T U V W X Y Z

A Global Threat - Sucks To Be Political tab

Standard Tuning

Intro
|-------------|
|-------------|
|-------------|
|--6-8-4-8----|
|--6-8-4-8----| 
|--4-6-2-6----|

Verse

|-------------------|
|-------------------|
|-----3-------------|
|-3-x-3-3-4-4-4-4---|
|-3-x-1-3-4-4-4-4---|
|-1-x---1-2-2-2-2---|

Bridge

|----|
|----|
|----|
|-8--|
|-8--|
|-6--|

Chorus
|--------------------------------------|
|--------------------------------------|
|-----------------11-11-11-11----------|
|-6-6-6-6-8-8-8-8-11-11-11-11-8-8-8-8--|
|-6-6-6-6-8-8-8-8--9--9--9--9-8-8-8-8--|
|-4-4-4-4-6-6-6-6-------------6-6-6-6--|

Solo

|-6-4-6-4--------|
|---------7-6----|
|----------------|
|----------------|
|----------------|
|----------------|





Order

Intro    X2
Verse    X4
Bridge   X1
Chorus   X2
Verse    X4
Bridge   X1
Chorus   X2
Solo     X16
Chorus   X4

Any problems contact me at dfahb44@yahoo.com
or instant message me at nuclear allan
Long live houston punks
Tap to rate this tab
# A B C D E F G H I J K L M N O P Q R S T U V W X Y Z