Song name
# A B C D E F G H I J K L M N O P Q R S T U V W X Y Z

A Great Big Pile Of Leaves - Spanish For Smile tab

----------------------------------------------------------------------------
               Spanish For Smile - A Great Big Pile of Leaves
----------------------------------------------------------------------------
Tabbed by: Michael
Email: michaellogan@mail.com

Tuning: Standard


Intro

|Guitar 1
|---------------------|
|---------------------|
|--2-2--2/6-6-4-------|
|---------------------|
|-0-0-0---------------|
|---------------------|
|
|---------------------|
|---------------------|
|--2-2--2/6-6-6p4-2---|
|---------------------|
|-0-0-0---------------|
|---------------------| (X2)

|Guitar 2 (after 2 measures)
|---------------------|
|---------------------|
|-22222-2/6-6-4-------|
|---------------------|
|---------------------|
|---------------------|
|
|---------------------|
|---------------------|
|-22222-2/6-6-6-6p4-2-|
|---------------------|
|---------------------|
|---------------------|

Verse (I)

|Guitar 2
|-------------------------|
|-------------------------|
|-2~------/4~-------------|
|-------------------------|
|-------------------------|
|-------------------------|
|
|---------------------|
|---------------------|
|-/6~--------------\--|
|---------------------|
|---------------------|
|---------------------|
|
|-------------------------|
|-------------------------|
|-2~------/4~-------------|
|-------------------------|
|-------------------------|
|-------------------------|
|
|--------------------------|
|--------------------------|
|-/6~-----/9~----7~--------|
|--------------------------|
|--------------------------|
|--------------------------|

Verse (II)

|Guitar 2
|---------------------------------------|
|-10-10p9-10p9-10p9-10p9-10p9-10p9-10p9-|
|---------------------------------------|
|---------------------------------------|
|---------------------------------------|
|---------------------------------------|
|
|-------------------------------------------|
|-12-12p10-12p10-12p10-12-12p10-12p10-12p10-|
|-------------------------------------------|
|-------------------------------------------|
|-------------------------------------------|
|-------------------------------------------|
|
|---------------------|
|-12/14~-14-17~-15-14-|
|---------------------|
|---------------------|
|---------------------|
|---------------------| (x2)


Pre-Chorus

|Guitar 2
|----------------|
|-\10~~--/17\14\-|
|----------------|
|----------------|
|----------------|
|----------------| (x4)
|
|--17b~-R-17-|
|--17b~-R-17-|
|------------|
|------------|
|------------|
|------------|

Chorus

|Guitar 2
|--------------------|
|--------------------|
|-7-6-4--------4-6\4-|
|-------7-4~-7-------|
|--------------------|
|--------------------|

	That's all I have for the chorus, it's a bascally a lot of sliding around
		and I've been having a hard time figuring it out. If anyone does get
		it though, please post it here or e-mail me.

	As far as the rest of the song though, it just repeats until the end

	Enjoy.
Tap to rate this tab
# A B C D E F G H I J K L M N O P Q R S T U V W X Y Z