Song name
# A B C D E F G H I J K L M N O P Q R S T U V W X Y Z

A Great Big Pile Of Leaves - Bring Back Breakfast tab

This is just the intro/verses. I shall finish the tab soon enough!

Guitar 1
(0:00) - Clean.
E|----x-------x---|----x-----------|----x-------x---|----x-------0---|
B|----x-------x---|----x-------2---|2---x---2---x-2-|--2-x---2-------|
G|1---x---1---x-1-|--1-x---1-----1-|2---x-----2-x-2-|--2-x-----2---2-|
D|2---x-----2-x-2-|--2-x-----2-----|0---x-0-----x-0-|--0-x-0---------|
A|0---x-0-----x-0-|--0-x-0---------|----x-------x---|----x-----------|
E|----x-------x---|----x-----------|----x-------x---|----x-----------|



Guitar 2
(0:13) - Clean, Palm Muted.
E|----------------|----------------|----------------|----------------|
B|----------------|----------------|----------------|----------------|
G|----------------|----------11-9--|----------------|----------11-9--|
D|------11-------9|------9-11----11|-------9------11|------9-11----11|
A|--9-12----9-12--|--9-12----------|--9-12----9-12--|--9-12----------|
E|----------------|----------------|----------------|----------------|

E|----------------|----------------|----------------|----------------|
B|----------------|----------------|----------------|----------------|
G|----------------|----------11-9--|----------------|6/9---(9)-------|
D|-------9-------9|------9-11----11|----------------|----------------|
A|--9-12----9-12--|--9-12----------|----------------|----------------|
E|----------------|----------------|----------------|----------------|
Tap to rate this tab
# A B C D E F G H I J K L M N O P Q R S T U V W X Y Z