Song name
# A B C D E F G H I J K L M N O P Q R S T U V W X Y Z

A Great Big World - I Dont Wanna Love Somebody Else Acoustic tab

A Great Big World - I Don't Wanna Love Somebody Else
From the album: Is There Anybody Out There? (2014)
This is my first acoustic tab so comment for any corrections and please rate

The original is played with the capo on the 3rd fret, if you want to play it
with capo 3 you can use these tabs though I think that it might sound a little off-tone.


Capo 8

Intro:
   C
E|------------------|
B|--1---1---1---1---|
G|----0---0---0---0-|
D|------------------|
A|-3-3-3-3-3-3-3-3--|
E|------------------|

Verse 1: 2x                              1x
   C               F                     C
E|----------------------------------| E|------------------|
B|--1---1---1---1---1---1---1---1---| B|--1---1---1---1---|
G|----0---0---0---0---2---2---2---2-| G|----0---0---0---0-|
D|----------------------------------| D|------------------|
A|-3-3-3-3-3-3-3-3-3-3-3-3-3-3-3-3--| A|-3-3-3-3-3-3-3-3--|
E|----------------------------------| E|------------------|

Chorus: 1x
   G       E       F                       G       C
E|------------------------------------------------------------------|
B|--0---0---0---0---0---0---1---1---1---1---0---0---1---1---1---1---|
G|----0---0---1---1---2---2---2---2---2---2---0---0---0---0---0---0-|
D|------------------------------------------------------------------|
A|---------2-2-2-2-3-3-3-3-3-3-3-3-3-3-3-3---------3-3-3-3-3-3-3-3--|
E|-3-3-3-3---------------------------------3-3-3-3------------------|

Verse 2: 2x                              1x
   C               F                     C
E|----------------------------------| E|------------------|
B|--1---1---1---1---1---1---1---1---| B|--1---1---1---1---|
G|----0---0---0---0---2---2---2---2-| G|----0---0---0---0-|
D|----------------------------------| D|------------------|
A|-3-3-3-3-3-3-3-3-3-3-3-3-3-3-3-3--| A|-3-3-3-3-3-3-3-3--|
E|----------------------------------| E|------------------|

Verse 3: 2x                              1x
   C               F                     C
E|----------------------------------| E|------------------|
B|--1---1---1---1---1---1---1---1---| B|--1---1---1---1---|
G|----0---0---0---0---2---2---2---2-| G|----0---0---0---0-|
D|----------------------------------| D|------------------|
A|-3-3-3-3-3-3-3-3-3-3-3-3-3-3-3-3--| A|-3-3-3-3-3-3-3-3--|
E|----------------------------------| E|------------------|

Chorus: 1x
   G       E       F                       G       C
E|------------------------------------------------------------------|
B|--0---0---0---0---0---0---1---1---1---1---0---0---1---1---1---1---|
G|----0---0---1---1---2---2---2---2---2---2---0---0---0---0---0---0-|
D|------------------------------------------------------------------|
A|---------2-2-2-2-3-3-3-3-3-3-3-3-3-3-3-3---------3-3-3-3-3-3-3-3--|
E|-3-3-3-3---------------------------------3-3-3-3------------------|

Verse 4: 1x
   C          F          C          F          C
E|--------------------------------------------------------|
B|--------------------------------------------------------|
G|-0----------2----------0----------2----------0----------|
D|--------------------------------------------------------|
A|-3----------3----------3----------3----------3----------|
E|--------------------------------------------------------|

Chorus: 1x
   G       E       F                       G       Am
E|------------------------------------------------------------------|
B|--0---0---0---0---1---1---1---1---1---1---0---0---1---1---1---1---|
G|----0---0---1---1---2---2---2---2---2---2---0---0---2---2---2---2-|
D|------------------------------------------------------------------|
A|---------2-2-2-2-3-3-3-3-3-3-3-3-3-3-3-3---------0-0-0-0-0-0-0-0--|
E|-3-3-3-3---------------------------------3-3-3-3------------------|

Outro: 1x
   F               G                C
E|----------------------------------0-|
B|---1-------1-------0-------0------1-|
G|-------2-------2-------0-------0--0-|
D|----------------------------------2-|
A|-3---3---3---3--------------------3-|
E|-----------------3---3---3---3------|

There arent really verses and choruses so this is how I named them:

Verse 1:
Oh, I built a world around you
Oh, you had me in a dream, 
I lived in every word you said

Chorus:
The stars had aligned
I thought that I found you
And I don't wanna love somebody else

Verse 2:
Oh, we left it all unspoken
Oh, we buried it alive 
and now it's screaming in my head

Verse 3:
Oh, I shouldn't go on hoping
Oh, that you will change your mind 
and one day we could start again

Chorus
Well I don't care if loneliness kills me
I don't wanna love somebody else

Verse 4:
Oh, I thought that I could change you
Oh, I thought that we would be the greatest story that I tell

Chorus:
I know that it's time to tell you it's over
But I don't wanna love somebody else
Tap to rate this tab
 
# A B C D E F G H I J K L M N O P Q R S T U V W X Y Z