Song name
# A B C D E F G H I J K L M N O P Q R S T U V W X Y Z

A Great Big World - Say Something tab

 Tabbed by: HUGO98

 Say Something - A Great Big World

 So this is a whole fingerstyle arrangement for this awesome song. 
 There are a bit different up and down strokes in the last chorus, 
 but that is just up, down, up, down... almost the entire way, 
 so hopefully, it shouldn't be to hard. Thanks for understanding.
 Explanations for the symbols in the tab, are at the bottom of the page.  


 And please, feel free to write comments, corrections and rate it.

 Thanks!

  

 No capo
  
 Tuning - Open Dsus4 

 D - Top string
 A
 D
 G
 A
 D


 Intro:

D|------------------------------------------|
A|------------------------------------------|
G|------------------------------------------|
D|----<12>----<12>----<12>----<12>--<12>----|
A|------------------------------------------|
D|------------------------------------------|

D|----0-----0-----0-----0-----0-----0----0-----0-----|
A|----0-----0-----0-----0-----0-----0----0-----0-----|
G|---------------------------------------------------|
D|---------------------------------------------------|
A|----2----(2)---------------------------0----(0)----|
D|----------------5----(5)----0----(0)---------------|


Chorus:

D|-----------------------------------------------------------------|
A|-----------------------------------------------------------------|
G|-----------------------------------------------------------------|
D|----0----2h4----2----2----2----2----2h4----2p0----0----0----0----|
A|----2----2-2-----------------------------------------------------|
D|--------------------------5----------------5-----------0---------|

D|-----------------------------|
A|-----------------------------|
G|-----------------------------|
D|-----2-----2-----------0-----|
A|-----4-----4-----4-----------|
D|-----------------------------|


D|-----------------------------------------------------------------------|
A|-----------------------------------------------------------------------|
G|-----------------------------------------------------------------------|
D|----0----2h4----2----2----2---------2h4----2p0----0----<12>----<12>----|
A|----2----2-2-----------------------------------------------------------|
D|--------------------------5----5-----------5------------0--------------|

D|-----------------------------|
A|-----------------------------|
G|-----------------------------|
D|-----2-----2-----------0-----|
A|-----4-----4-----4-----------|
D|-----------------------------|


D|--------------------------------------------------------------------|
A|-----------2h4------------------------------------------------------|
G|---------0---------0-------0---2---2p0------------------------------|
D|---0---------------0-------0--------------/4---4---2---2-------0----|
A|---2---2-------------------------------------------4---4---4--------|
D|-------------------5---5---5---------------0---0--------------------|

D|---------4----2----2----2----2----2h4----2p0----0----0----0----|
A|-----------------------------------------------------0----0----|
G|-----------------------------------------------------2----2----|
D|----0------------------------------------------------0---------|
A|----2----2-------------------------------------------0---------|
D|------------------------5----------------5-----------0----0----|
                                                        
D|-----------------------------|
A|-----------------------------|
G|-----------------------------|
D|-----2-----2-----------0-----|
A|-----4-----4-----4-----------|
D|-----------------------------|


Bridge:

 D|-----0-----0-----0-----0-----2-----2/4---------------------------------|
 A|-----0-----0-----0-----0-------------------------0h2/4-----4-----4-----|
 G|-----2-----2-----2-----2-----------------------------------2-----2-----|
 D|-----0-----0-----0-----0-----------------------------------------------|
 A|-------------------------------------------0---------------0-----0-----|
 D|-----------------------------------------------------------------------|

 D|-------------------------------------------------------------------------|
 A|-----------------------4/5-----5-----2p0-----0h2-----2-----------2p0-----|
 G|-----------------2-------------0-------------0-------0-----------0-------|
 D|-----------0-------------------0-------------0-------0-----------0-------|
 A|-----0-------------------------------------------------------------------|
 D|-------------------------------5-------------5-------5-----5-----5-------|

 D|-----------0-----0-----------------------------------|
 A|-----0-----0-----0-----------------------------------|
 G|-----0-----2-----2-----------------------------------|
 D|-----------0-----------------2-----2-----------0-----|
 A|-----------0-----------------4-----4-----4-----------|
 D|-----------0-----0-----0-----------------------------|

 D|----0----0----0---------0----2----2/4-------------------------------------|
 A|----0----0----0---------0---------------------0h2/4---------4/5\4----4----|
 G|----2----2----2---------2--------------------------------------------2----|
 D|----0----0----0---------0-------------------------------------------------|
 A|----0------------------------------------0-------------0-------------0----|
 D|----0--------------0------------------------------------------------------|

 D|---------------------------------------------------------------------|
 A|-------------------4/5----5----2p0----2p0h2----2---------2p0----0----|
 G|--------------2-----------0-----------0--------0---------0------0----|
 D|---------0----------------0-----------0--------0---------0-----------|
 A|----0----------------------------------------------------------------|
 D|--------------------------5-----------5--------5----5----5-----------|

 D|----0----0-----------------------------|
 A|----0----0-----------------------------|
 G|----2----2-----------------------------|
 D|----0--------------2----2---------0----|
 A|----0--------------4----4----4---------|
 D|----0----0----0------------------------|


 Chorus:

 D|----0----4----2---------2----2----2---------2h4----2p0----0----0----|
 A|---------------------------------------------------------------0----|
 G|---------------------------------------------------------------2----|
 D|---------------------------------------------------------------0----|
 A|----2----2---------2-------------------------------------------0----|
 D|-----------------------------5---------5-----------5-----------0----|


 D|----0---------0--------------------------------------------|
 A|----0---------0--------------------------------------------|
 G|----2---------2--------------------------------------------|
 D|------------------------2---------2---------2---------0----|
 A|------------------------4----4---------4----4----4---------|
 D|----0----0---------0---------------------------------------|

 D|----0----4----2---------2----2---------2h4----2p0----0----0----|
 A|----------------------------------------------------------0----|
 G|----------------------------------------------------------2----|
 D|----------------------------------------------------------0----|
 A|----2----2---------2--------------------------------------0----|
 D|-----------------------------5----5-----------5-----------0----|

 D|----0---------0--------------------------------------------|
 A|----0---------0--------------------------------------------|
 G|----2---------2--------------------------------------------|
 D|------------------------2---------2---------2---------0----|
 A|------------------------4----4---------4----4----4---------|
 D|----0----0---------0---------------------------------------|

 D|----0---------------------0------------------------------------------|
 A|-------------------2h4-----------------------------------------------|
 G|--------------0----------------0---------0----2----2p0---------------|
 D|-------------------------------0---------0----------------/4---------|
 A|----2----2-----------------------------------------------------------|
 D|-------------------------------5----5----5-----------------0----0----|

 D|---------------------------------------------------------------|
 A|---------------------------------------------------------------|
 G|---------------------------------------------------------------|
 D|----4---------4---------2---------2---------2----2/4----2p0----|
 A|------------------------4----4---------4----4------------------|
 D|----0----0---------0-------------------------------------------|

 D|---------4----2---------2----2----2---------2h4----2p0----0----0---------|
 A|---------------------------------------------------------------0---------|
 G|---------------------------------------------------------------2---------|
 D|---------------------------------------------------------------0---------|
 A|----2----2---------2-------------------------------------------0---------|
 D|-----------------------------5---------5-----------5-----------0----0----|

 D|----0---------0--------------------------------------------|
 A|----0---------0--------------------------------------------|
 G|----2---------2--------------------------------------------|
 D|------------------------2---------2---------2---------0----|
 A|------------------------4----4---------4----4----4---------|
 D|----0----0---------0---------------------------------------|


 Bridge #2

 D|----0----0----x----x----0----2----2/4-----------------------x----x----|
 A|----0----0----x----x----0---------------------0h2/4----4----x----x----|
 G|----2----2----x----x----2------------------------------2----x----x----|
 D|----0----0----x----x----0-----------------------------------x----x----|
 A|----0---------x----x---------------------0-------------0----x----x----|
 D|----0---------x----x----------------------------------------x----x----|

 D|---------------------------------------------x----x--------------------|
 A|-------------------4/5----5----2p0----0h2----x----x---------2p0h2p0----|
 G|--------------2-----------0-----------0------x----x---------0----------|
 D|---------0----------------0-----------0------x----x---------0----------|
 A|----0----------------------------------------x----x--------------------|
 D|--------------------------5-----------5------x----x----5----5----------|

 D|----0----0----0----0----0----0----0----0----|
 A|----0----0----0----0----0----0----0----0----|
 G|----2----2----2----2----2----2----2----2----|
 D|----0-------------------0-------------------|
 A|----0---------------------------------------|
 D|----0---------------------------------------|


 D|----0----0----0----0----x-----x---x---x-----x-----x----|
 A|----0----0----0----0----x-----x---x---x-----x-----x----|
 G|----0----0----0----0----x-----x---x---x-----x-----x----|
 D|----2----2----2----2----x-----x---x---x-----x-----x----|
 A|----4----4----4----4----x-----x---x---x-----x-----x----|
 D|------------------------x-----x---x---x-----x-----x----|


 Final Chorus:

 D|-------------------4----4----4----4----2---------2----2----2---------2h4--|
 A|------------------------------------------------------0-------------------|
 G|------------------------------------------------------0-------------------|
 D|------------------------------------------------------0-------------------|
 A|----2----(2)----(2)-------------------------2---------0-------------------|
 D|------------------------------------------------------5---------5---------|

 D|-----2p0-----0-----|
 A|-----0-------------|
 G|-----0-------------|
 D|-----0-------------|
 A|-----0-------------|
 D|-----5-------------|

 D|-----0-----0-----0-----0-----0-----0-----0-----0-----0-----0-----0-----0--|
 A|-----0-----0-----0-----0-----0-----0-----0-----0-----0-----0-----0-----0--|
 G|-----2-----2-----2-----2-----2-----2-----2-----2-----0-----0-----0-----0--|
 D|-----0-----------------------0-----------------------2-----2-----2-----2--|
 A|-----0-----------------------------------------------4-----4-----4-----4--|
 D|-----0--------------------------------------------------------------------|

 D|-----0-----0-----0-----0-----------------------|
 A|-----0-----0-----0-----0-----------------------|
 G|-----0-----0-----0-----0-----------------------|
 D|-----2-----2-----2-----2-----------------------|
 A|-----4-----4-----4-----4-----2-----2-----2-----|
 D|-----------------------------------------------|

 D|-----4-----4-----4-----4-----2-----------2-----|
 A|-----------------------------------------------|
 G|-----------------------------------------------|
 D|-----------------------------------------------|
 A|-----------------------------------2-----------|
 D|-----------------------------------------------|

 D|-----2-----------2h4-----2p0-----0-----0-----|
 A|-----0-------------------0-------------0-----|
 G|-----0-------------------0-------------2-----|
 D|-----0-------------------0-------------0-----|
 A|-----0-------------------0-------------0-----|
 D|-----5-----5-------------5-------------0-----|

 D|-----0-----0-----0-----0-----0-----0-----0-----|
 A|-----0-----0-----0-----0-----0-----0-----0-----|
 G|-----2-----2-----2-----2-----2-----2-----2-----|
 D|-----------------------0-----------------------|
 A|-----------------------------------------------|
 D|-----------------------------------------------|

 D|-----0-----0-----0-----0-----0-----0-----0-----0-----0-----|
 A|-----0-----0-----0-----0-----0-----0-----0-----0-----0-----|
 G|-----0-----0-----0-----0-----0-----0-----0-----0-----0-----|
 D|-----2-----2-----2-----2-----2-----2-----2-----2-----2-----|
 A|-----4-----4-----4-----4-----4-----4-----4-----4-----4-----|
 D|-----------------------------------------------------------|

 D|------------------------------------------------------0-----|
 A|------------------------2-----2-----2-----2-----4-----------|
 G|------------------------0-----0-----0-----------------------|
 D|------------------------------------------------------------|
 A|-----2-----2-----2-----(2)----------------------------------|
 D|------------------------------------------------------------|

 D|-----5-----5-----------5-----5-----7-----7-----4-----|
 A|-----0-----------------------0-----------------0-----|
 G|-----0-----------------------0-----------------2-----|
 D|-----0-----------------------0-----------------0-----|
 A|-----0-----------------------0-----------------0-----|
 D|-----5-----------5-----------5-----------------0-----|

 D|-----4-----4-----4-----4-----0-----0-----0-----|
 A|-----0-----0-----0-----0-----0-----0-----0-----|
 G|-----2-----2-----2-----2-----2-----2-----2-----|
 D|-----------------------------------------------|
 A|-----------------------------------------------|
 D|-----------------------------------------------|

 D|-----2-----2-----0-----0-----2-----2/5-----------|
 A|-----0-----0-----0-----0-----0-----0-------------|
 G|-----0-----0-----0-----0-----0-----0-------------|
 D|-----2-----2-----2-----2-----2-----2/5-----------|
 A|-------------------------------------------------|
 D|-------------------------------------------------|

 D|-----5-----5-----4-----4-----4-----4-----|
 A|-----0-----0-----0-----0-----0-----0-----|
 G|-----0-----0-----0-----0-----0-----0-----|
 D|-----5-----5-----4-----4-----4-----4-----|
 A|-----------------------------------------|
 D|-----------------------------------------|

 D|-----------------------4-----4-----4-----4-----2-----------2-----|
 A|-----------------------------------------------------------------|
 G|-----------------------------------------------------------------|
 D|-----------------------------------------------------------------|
 A|-----2-----2-----2-----------------------------------2-----------|
 D|-----------------------------------------------------------------|

 D|-----2-----2-----------2h4-----2p0-----0-----0-----|
 A|-----0-------------------------0-------------0-----|
 G|-----0-------------------------0-------------2-----|
 D|-----0-------------------------0-------------0-----|
 A|-----0-------------------------0-------------0-----|
 D|-----5-----------5-------------5-------------0-----|

 D|-----0-----0-----0-----0-----0-----0-----0-----|
 A|-----0-----0-----0-----0-----0-----0-----0-----|
 G|-----2-----2-----2-----2-----2-----2-----2-----|
 D|-----------------------0-----------------------|
 A|-----------------------------------------------|
 D|-----------------------------------------------|

 D|-----0-----0-----0-----0-----0-----0-----0-----0-----|
 A|-----0-----0-----0-----0-----0-----0-----0-----0-----|
 G|-----0-----0-----0-----0-----0-----0-----0-----0-----|
 D|-----2-----2-----2-----2-----2-----2-----2-----2-----|
 A|-----4-----4-----4-----4-----4-----4-----4-----4-----|
 D|-----------------------------------------------------|


 Outro:


 D|-------------------------------------------------------|
 A|-------------------------------------------------------|
 G|-------------------------------------------------------|
 D|---------2h4----2----2----2----2----2h4----2p0----0----|
 A|----2----2---------------------------------------------|
 D|--------------------------5----------------5-----------|

 D|-------------------------------|
 A|-------------------------------|
 G|-------------------------------|
 D|----0----0----2----2p0---------|
 A|--------------4----4------0----|
 D|----0--------------------------|

 D|-----------------------------------------0----|
 A|-----------------------------------------0----|
 G|-----------------------------------------2----|
 D|----0----2h4----2----2---------0---------0----|
 A|----2----2-------------------------------0----|
 D|--------------------------5---------5----0----|
                                          Let ring out










 ************************************
 | /   slide up
 | \   slide down
 | h   hammer-on
 | p   pull-off
 | ~   vibrato
 | <>  harmonic
 | x   Bang on the guitar 
 | b   Bend
 | pb  Pre-bend
 | br  Bend release
 | pbr Pre-bend release
 | ( ) Don't play, let ring
 ************************************
Tap to rate this tab
# A B C D E F G H I J K L M N O P Q R S T U V W X Y Z