Song name
# A B C D E F G H I J K L M N O P Q R S T U V W X Y Z

A Great Big World - Rockstar tab

-----------------------------------------------------------------------------
			  Rockstar (Solo) - A Great Big World
-----------------------------------------------------------------------------
Tabbed by: Matt_DK

Tuning: Standard

Take a ticket and get off the line [8x]
Singing, "Ah ha ha I just wanna be a rockstar." [4x]

3:35
e|-------------------------------------------------|
B|-16p13-------16p13-------16p13-------16p13-------|
G|-------15p13-------15p13-------15p13-------15p13-| (x4)
D|-------------------------------------------------|
A|-------------------------------------------------|
E|-------------------------------------------------|

e|-16p13-------16p13-------16p13-------16p13-------|
B|-------16p13-------16p13-------16p13-------16p13-|
G|-------------------------------------------------| (x2)
D|-------------------------------------------------|
A|-------------------------------------------------|
E|-------------------------------------------------|

e|-16p13-------16p13-16/18-------------------------|
B|-------16p13-------------------------------------|
G|-------------------------------------------------|
D|-------------------------------------------------|
A|-------------------------------------------------|
E|-------------------------------------------------|

************************************

| /   slide up
| \   slide down
| h   hammer-on
| p   pull-off
| ~   vibrato
| +   harmonic
| x   Mute note
| b   Bend
| pb  Pre-bend
| br  Bend release
| pbr Pre-bend release
| brb Bend release bend

************************************
Tap to rate this tab
# A B C D E F G H I J K L M N O P Q R S T U V W X Y Z