A-ha - You Are The One tab

a-ha
You Are The One
Stay On These Roads (1988)

there's no real guitar in this song, but the distinctive intro keyboard riff can 
be played as follows:

e|--1-0---------------------1-0--------------------1-0---------------|
B|------1-3--3--1-0-------------1-3--3--1-0------------1-3---1-0-----|
G|------------------0-2---2-----------------0-2------------------0-2-|
D|-------------------------------------------------------------------|
A|-------------------------------------------------------------------|
E|-------------------------------------------------------------------|

e|--1-0-----------------|
B|------1-3--3--1-0-----|
G|------------------0-2-|
D|----------------------|
A|----------------------|
E|----------------------|

and the trumpet/synth solo that appears on occasion:

e|--10-10-10-10----10----10-12--10-10-10-10----10----10-12-|
B|--------------12----12--------------------12----12-------|
G|---------------------------------------------------------|
D|---------------------------------------------------------|
A|---------------------------------------------------------|
E|---------------------------------------------------------|


e|--10---10----10----10-12--14-13-17-14--------------------|
B|----------12----12--------------------15-----------------|
G|-----------------------------------------16--------------|
D|---------------------------------------------------------|
A|---------------------------------------------------------|
E|---------------------------------------------------------|

after a few repeats, end the solo on a D.
Tap to rate this tab
 
# A B C D E F G H I J K L M N O P Q R S T U V W X Y Z