Song name
# A B C D E F G H I J K L M N O P Q R S T U V W X Y Z

A-ha - Cosy Prisons tab

Help us improve GuitareTab! Take a short survey!
-------------------------------------------------------------------------------
			    A-HA COSY PRISONS
-------------------------------------------------------------------------------
Tabbed by:Imran50
Email:Imran50@imran50.plus.com

Tuning:Standard

Listen to the track and the chords will make sense once you've played along

Piano arrangement for guitar (played four times as intro)

e|---------------3-------------------------------------------------------------------|
B|--------3-3-4--------------3-3-4---------------------------------------------------|
G|---5-5-----------------5-5-------3-------------------------------------------------|
D|-----------------------------------------------------------------------------------|
A|-----------------------------------------------------------------------------------|
E|-----------------------------------------------------------------------------------|

Chords strummed with intro
       C Minor            Ab major
e|---------3------------------4--------------------------------------------------|
B|---------4------------------4--------------------------------------------------|
G|---------5------------------5--------------------------------------------------|
D|---------5------------------6--------------------------------------------------|
A|---------3------------------6--------------------------------------------------|
E|----------------------------4--------------------------------------------------|

Verse (2 times)
   Cm     Bbmaj    Abmaj   Cm    Abmaj   Gm    Cm
e|-3-----------------4------3------4------3-----3-------------------------------------|
B|-4--------3--------4------4------4------3-----4-------------------------------------|
G|-5--------3--------5------5------5------3-----5-------------------------------------|
D|-5--------3--------6------5------6------5-----5-------------------------------------|
A|-3--------1--------6------3------6------5-----3-------------------------------------|
E|-------------------4-------------4------3-------------------------------------------|

Chorus/Verse 2

Chords
Abmaj    Cm

The song then pretty much repeats as above
Related for Cosy Prisons tab