Song name
# A B C D E F G H I J K L M N O P Q R S T U V W X Y Z

A Heartwell Ending - If Looks Could Kill tab

-------------------------------------------------------------------------------
			     A Heartwell Ending- If Looks Could Kill
-------------------------------------------------------------------------------
Tabbed by:xsaosinx06
Email:aim sn-xsaosinx06 IM me if there is a problem.

Tuning:normal

Palm Mute: *
Slide: /

Listen to the song for the timings.

     Clean
e|----------------------------------------------------------------------------|
B|----------------------------------------------------------------------------|
G|-------9------------8--------------7----------------------------------------|
D|-------9------------8--------------7----------------------------------------|
A|-------7.....-------6.....---------5.....-----------------------------------|
E|----------------------------------------------------------------------------|

     Chorus:Distortion
e|----------------------------------------------------------------------------|
B|----------------------------------------------------------------------------|
G|---------------------------------------------7------------------------------|
D|-------5---------------------------5----------------------------------------|
A--------5---------------------------5---------5....--------------------------|
E|-------3.............--------------3...-------------------------------------|

         Verse 1:Distortion
e|----------------------------------------------------------------------------|
B|----------------------------------------------------------------------------|
G|--------7-----------8------------7-----7/9----------------------------------|
D|----------------------------------------------------------------------------|
A|--------5.....------6.....-------5....-5-7----------------------------------|
E|----------------------------------------------------------------------------|

      Chorus:Distortion
e|----------------------------------------------------------------------------|
B|----------------------------------------------------------------------------|
G|---------------------------------7------------------------------------------|
D|--------5-------------5-----------------------------------------------------|
A|--------5-------------5----------5.....-------------------------------------|
E|--------3.....--------3.....------------------------------------------------|

         Verse 2:Distorion
e|----------------------------------------------------------------------------|
B|----------------------------------------------------------------------------|
G|--------7-----------8------------7-----7/9----------------------------------|
D|----------------------------------------------------------------------------|
A|--------5.....------6.....-------5....-5-7----------------------------------|
E|----------------------------------------------------------------------------|

 Chorus:Distortion
e|----------------------------------------------------------------------------|
B|----------------------------------------------------------------------------|
G|---------------------------------7------------------------------------------|
D|--------5-------------5-----------------------------------------------------|
A|--------5-------------5----------5.....-------------------------------------|
E|--------3.....--------3.....------------------------------------------------|

         Clean
e|----------------------------------------------------------------------------|
B|----------------------------------------------------------------------------|
G|-------9------------8--------------7----------------------------------------|
D|-------9------------8--------------7----------------------------------------|
A|-------7.....-------6.....---------5.....-----------------------------------|
E|----------------------------------------------------------------------------|

           Distortion
e|----------------------------------------------------------------------------|
B|-----------------------9-------------6------------8------------5-----5h7----|
G|----------------------------------------------------------------------------|
D|-----------------7-7---------7-7------------7-7---------7-7-----------------|
A|----------------------------------------------------------------------------|
E|----------------------------------------------------------------------------|
                   * *         * *            * *         * *

e|----------------------------------------------------------------------------|
B|----------------------------------------------------------------------------|
G|--------------7---------------------7-----------------------------7---------|
D|---0--------------------0-----------------------0---------------------------|
A|---0----------5---------0-----------5-----------0-----------------5---------|
E|---0....----------------0....-------------------0..........-----------------|
     *****                *****                   ***********

         Chorus:Distortion
e|----------------------------------------------------------------------------|
B|----------------------------------------------------------------------------|
G|---------------------------------7------------------------------------------|
D|--------5-------------5-----------------------------------------------------|
A|--------5-------------5----------5.....-------------------------------------|
E|--------3.....--------3.....------------------------------------------------|

     Clean           repeat this till the end of the song
e|----------------------------------------------------------------------------|
B|----------------------------------------------------------------------------|
G|-------9------------8--------------7----------------------------------------|
D|-------9------------8--------------7----------------------------------------|
A|-------7.....-------6.....---------5.....-----------------------------------|
E|----------------------------------------------------------------------------|
Tap to rate this tab
# A B C D E F G H I J K L M N O P Q R S T U V W X Y Z