Guitaretab - guitar tabs
Song name
# A B C D E F G H I J K L M N O P Q R S T U V W X Y Z

A Is A - Beautiful tab

-------------------------------------------------------------------------------
			     BEAUTIFUL - A is A   (www.aisa.ca)
-------------------------------------------------------------------------------
Tabbed by: Susan Jupinder
Email: xylophonesusan@yahoo.ca

Tuning: Open D (DADF#AD)

listen to track for picking/strumming.

Intro, verse: 

e|---0----0-----0---0-----|---0---0----0---0---0---|
B|---0----0-----0---0-----|---0---0----0---0---0---|
G|---0----0-----0---0-----|---0---0----0---0---0---|
D|---0----0-----0---0-----|---0---0----0---0---0---|
A|---2----0-----x---x-----|---1---2--------0---2---|
E|--------------6---5-----|------------------------|
   play x 4                   play x 1


Chorus:
[ Tab from: http://www.guitaretab.com/a/a-is-a/190083.html ]
e|---0---0---0---|---0---0---0---------------------|
B|---0---0---0---|---0---0---0---------------------|
G|---0---0---0---|---0---0---0---------------------|
D|---0---0---0---|---0---0---0---------------------|
A|-------4---x---|---3---2---x---------------------|
E|-----------5---|-----------5---------------------|
     play x 3       play x 1


Bridge: 

e|---0--0--0--0----0--0--0--0----------------------|
B|---0--0--0--0----0--0--0--0----------------------|
G|---0--0--0--0----0--0--0--0----------------------|
D|---0--0--0--0----0--0--0--0----------------------|
A|---2--0--2--0-------x--3--4----------------------|
E|-----------------------0-------------------------|
    play x 1


play in this order:
Intro
Verse
Chorus
Verse
Chorus
Bridge 
Chorus

===============================================================================