Guitaretab - guitar tabs
Song name
# A B C D E F G H I J K L M N O P Q R S T U V W X Y Z

A Life Once Lost - Detest tab

-------------------------------------------------------------------------------
			     Detest - A Life Once Lost
-------------------------------------------------------------------------------
Tabbed by:Andrew Skelly
Email:

Tuning: Drop D /  slide up
| \  slide down
| h  hammer-on
| p  pull-off
| ~  vibrato
| +  harmonic
| x  Mute note
===============================================================================

[ Tab from: http://www.guitaretab.com/a/a-life-once-lost/101840.html ]
e|---------------------------------------------------------------------------|
B|---------------------------------------------------------------------------|
G|---------------------------------------------------------------------------|
D|-1-0-00-0-00--------00--------0-3-6-1-0-00-0-00-------------------6633-|---|
A|-1-0-00-0-00-8p5----00-6p3----0-3-6-1-0-00-0-00--8p5----------6633-----|---|
D|-1-0-00-0-00-----6~-00-----4~-0-3-6-1-0-00-0-00------6~-006633---------|X2-|
       xx   xx        xx        x         xx   xx         xxxxxxxxxxxxxx
e|---------------------------------------------------------------------------|
B|---------------------------------------------------------------------------|
G|---------------------------------------------------------------------------|
D|--------------------------------------------------------------|------------|
A|--------------------------------------------------------------|------------|
D|-6p0-0-7p6p0-3p0-1p0-6p0-0000-6p0-0-7p6p0-3p0-6p0-1p0-1h6p1p0-|X4----------|
       x                   xxxx     x
e|---------------------------------------------------------------------------|
B|---------------------------------------------------------------------------|
G|------------------------------------------------------------------------|--|
D|-7-6----------3----5/6-0----------3------2----------3------1----------3-|--|
A|-7-6----------3----3/4-0----------3----3-2----------3----3-1----------3-|--|
D|-7-6-00000000-3-00-----0-00000000-3-00-2-2-22222222-3-00-1-1-11111111-3-|--|
       xxxxxxxx   xx       xxxxxxxx   xx     xxxxxxxx   xx     xxxxxxxx
e|---------------------------------------------------------------------------|
B|---------------------------------------------------------------------------|
G|----------------------------5---5---5---8---8---12-------------------------|
D|-0-0000-0-0-0-0-0000-0-0-0--5---5---5---8---8---12-------------------------|
A|-0-0000-0-0-0-0-0000-0-0-0--3---3---3---6---6---10-------------------------|
D|-0-0000-0-0-0-0-0000-0-0-0----0---0---0---0---0----------------------------|
   x xxxx x x x x xxxx x x x 



Related for Detest tab
Advertisement will be closed in 10 seconds