Song name
# A B C D E F G H I J K L M N O P Q R S T U V W X Y Z

A Life Once Lost - Masks tab

Track 1
      Q    S S S S  Q     Q       Q    S S S S Q    Q     
E||----------------------------|-------------------------|
B||----------------------------|-------------------------|
G||*---------------13----10----|--6------------7----6----|
D||*--0------------------------|--4----------------------|
A||---0------------11-----8----|--4------------5----4----|
D||---0----0-0-0-0-------------|--4----4-4-4-4-----------|


  Q    S S S S Q    Q       Q    S S S S Q     E  S S  4x           
-------------------------|-----------------------------||----|----||
-------------------------|-----------------------------||----|----||
--5------------7----5----|--3------------8----10------*||----|----||
--3----------------------|--1-------------------------*||----|----||
--3------------5----3----|--1------------6-----8-------||----|----||
--3----3-3-3-3-----------|--1----1-1-1-1----------0-0--||----|----||

Track 2
      Q    S S S S  Q     Q       Q    S S S S  Q     Q     
E||----------------------------|---------------------------|
B||----------------12----13----|---------------11----10----|
G||*---------------------------|--6------------------------|
D||*--0-------------9----10----|--4-------------8-----7----|
A||---0------------------------|--4------------------------|
D||---0----0-0-0-0-------------|--4----4-4-4-4-------------|


  Q    S S S S  Q    Q       Q    S S S S Q     E  S S  4x  S S S S  
--------------------------|-----------------------------||----------|
--------------------------|---------------8----10-------||----------|
--5------------10----9----|--3-------------------------*||----------|
--3-----------------------|--1------------5-----7------*||----------|
--3-------------8----7----|--1--------------------------||----------|
--3----3-3-3-3------------|--1----1-1-1-1----------0-0--||--0-3-5-6-|
Tap to rate this tab
 
# A B C D E F G H I J K L M N O P Q R S T U V W X Y Z