Song name
# A B C D E F G H I J K L M N O P Q R S T U V W X Y Z

A Loss For Words - Jetsetter tab

Jetsetter
A Loss For Words


Standard Tuning


Intro
e|--------------------------------------------------0----------|
B|--------------------------------------1-0-----0-1---1--------|
G|------------------------------------------------2-----2-0----|
D|--2---2---2---0---2---2---2---0-----2-------0---3---------3--|
A|----3---3---3---3---3---3---3---3-0-------------3------------|
E|------------------------------------------3------------------|


Verse
e|-------------------------------------------------------------|
B|--------------------------------------1-0-----0-1-----1------|
G|------------------------------------------------2---2---2----| x2
D|--2---2---2---0---2---2---2---0-----2-------0---3-3-------3--|
A|----3---3---3---3---3---3---3---3-0-------------3------------|
E|------------------------------------------3------------------|

e|--------------------------------------------------0----------|
B|--------------------------------------1-0-----0-1---1--------|
G|------------------------------------------------2-----2-0----| x2
D|--2---2---2---0---2---2---2---0-----2-------0---3---------3--|
A|----3---3---3---3---3---3---3---3-0-------------3------------|
E|------------------------------------------3------------------|


Chorus
e|---------------------------------------------------------------------|
B|---------------------------------------------------------------------|
G|--5-5-5-5-5-5-5-5-5-5-5-5-5-5-5-5-5-5-5-5-2-2------------------------| x2
D|--5-5-5-5-5-5-5-5-5-5-5-5-5-5-5-5-5-5-5-5-2-2-5-5-3-3-3-3-3-3-3-3-3--|
A|--3-3-3-3-3-3-3-3-3-3-3-3-3-3-3-3-3-3-3-3-0-0-5-5-3-3-3-3-3-3-3-3-3--|
E|----------------------------------------------3-3-1-1-1-1-1-1-1-1-1--|


Verse
e|--------------------------------------------------0----------|
B|--------------------------------------1-0-----0-1---1--------|
G|------------------------------------------------2-----2-0----| x2
D|--2---2---2---0---2---2---2---0-----2-------0---3---------3--|
A|----3---3---3---3---3---3---3---3-0-------------3------------|
E|------------------------------------------3------------------|


Chorus
e|---------------------------------------------------------------------|
B|---------------------------------------------------------------------|
G|--5-5-5-5-5-5-5-5-5-5-5-5-5-5-5-5-5-5-5-5-2-2------------------------| x2
D|--5-5-5-5-5-5-5-5-5-5-5-5-5-5-5-5-5-5-5-5-2-2-5-5-3-3-3-3-3-3-3-3-3--|
A|--3-3-3-3-3-3-3-3-3-3-3-3-3-3-3-3-3-3-3-3-0-0-5-5-3-3-3-3-3-3-3-3-3--|
E|----------------------------------------------3-3-1-1-1-1-1-1-1-1-1--|


Bridge
e|-------------|
B|-------------|
G|-----2-------| x6
D|--5--2--3\5--|
A|--5--0--3\5--|
E|--3-----1\3--|


Chorus
e|---------------------------------------------------------------------|
B|---------------------------------------------------------------------|
G|--5-5-5-5-5-5-5-5-5-5-5-5-5-5-5-5-5-5-5-5-2-2------------------------| x3
D|--5-5-5-5-5-5-5-5-5-5-5-5-5-5-5-5-5-5-5-5-2-2-5-5-3-3-3-3-3-3-3-3-3--|
A|--3-3-3-3-3-3-3-3-3-3-3-3-3-3-3-3-3-3-3-3-0-0-5-5-3-3-3-3-3-3-3-3-3--|
E|----------------------------------------------3-3-1-1-1-1-1-1-1-1-1--|

e|-----------------------------------------------------|
B|-----------------------------------------------------|
G|--5-5-5-5-5-5-5-5-5-5-5-5-5-5-5-5-5-5-5-5-2-2--------|
D|--5-5-5-5-5-5-5-5-5-5-5-5-5-5-5-5-5-5-5-5-2-2-5-5-3--|
A|--3-3-3-3-3-3-3-3-3-3-3-3-3-3-3-3-3-3-3-3-0-0-5-5-3--|
E|----------------------------------------------3-3-1--|
Tap to rate this tab
# A B C D E F G H I J K L M N O P Q R S T U V W X Y Z