Song name
# A B C D E F G H I J K L M N O P Q R S T U V W X Y Z

A Loss For Words - This Old Heart Of Mine tab

(/) Slide Up  (\) Slide Down  (h) Hammer On  (p) Pull Off  (b) Bend (r) Release (v) Vibrato

A Loss for words - This old heart of mine

This is my first tab, I'm sure its correct but feel free to correct me if I'm wrong

Listen to the song for timing

Intro

E|----------------------------------------------------|
B|----------------------------------------------------|
G|----------------------------------------------------|
D|--12/14----------12/14/16/12--12/14--10/9/5--/7-----|
A|----------14/17-------------------------------------|
E|----------------------------------------------------|

E|-----------------------------------------------------|
B|-----------------------------------------------------|
G|-----------------------------------------------------|
D|--12/14----------12/14/16/12--12/14--10/9/5----------|
A|----------14/17--------------------------------------|
E|-----------------------------------------------------|

E|----------------------------------------------------|
B|----------------------------------------------------|
G|--12/14/16/14---/12---------------------------------|
D|----------------------------------------------------|
A|----------------------------------------------------|
E|----------------------------------------------------|

The strumming pattern is pretty straight forward;
DDUDU

         G
This old heart of mine
                Bm
Being broken a thousand times
                C       Bm     Am     D
Each time you break away I think you're gonna stay
        G               Bm
Lonely nights to come, memories that go
   C            Bm
Bringing you back again,
Am              D
 hurting me more and more


Am          D7
Maybe it's my mistake
             Bm         Em
To show this love I feel inside
Am                   D7
'Cause each day that passes by
     Am          Bm            C
You got me never knowing if I'm coming
        D7
 or going but I


G       Bm       C   Bm
I love you, this old heart
        Am      D
darling is weak for you
G       Bm   C   Bm    A   D
I love you, yes I do, yes I do
 G
These old arms of mine
Bm
Miss having you around
C               Bm
Makes these tears inside
Am              D
Start pouring down

Am                      D7
Always with half a kiss
  Bm                     Em
You remind me of what I miss
Am              D7
Though I try to control myself
    Am              Bm
ILike a fool I start grinnin'
C               D
'cause my head starts spinnin' 'cause I


G       Bm             C   Bm
I love you, this old heart
Am      D
darling is weak for you
G         Bm  C    Bm Am    D7
I love you, yes I do, yes I do

         G              Bm
Ooh, I try hard to hide, my hurt inside
C       Bm     Am             D
This old heart of mine always keeps me cryin'
        G               Bm
The way you treat me, leaves me incomplete
C               Bm
you're here for the day
Am            D
Gone for the week
Am                      D7
Girl if you leave me a hundred times
  Bm                            Em
A hundred times I'll take you back
Am              D7
I'm yours whenever you want me
    Am               Bm   C   D7
I'm not too proud to shout it, tell the world about it 'cause I

G      Bm       C   Bm
I love you, this old heart
         Am     D
darling is weak for you
G       Bm    C         Bm   Am     D
I love you, yes I do, yes I do

G       Bm       C   Bm      Am     D7
I love you, yes I do, this old heart
G       Bm
darling is weak for you
C   Bm  Am    D7
I love you, yes I do, yes I do

G       Bm
darling is weak for you
Tap to rate this tab
 
# A B C D E F G H I J K L M N O P Q R S T U V W X Y Z