Song name
# A B C D E F G H I J K L M N O P Q R S T U V W X Y Z

A Lot Like Birds - Vanitys Fair tab

-------------------------------------------------------------------------------
Vanity’s Fair – A Lot Like Birds
-------------------------------------------------------------------------------
Tuning: Standard E
4/4

Guitar I

  Part A (Intro) [Finger tapping; R.H. = Right Hand)
e|---------------------------------------------------------------------------|\
B|-12------------------------------------------------------------------------| \
G|------9--------12---12-----------------------------------------------------|  Repeat
D|--------12---9-----------7-12-----10---9---5-------12---9---5-------12-----|  4x
A|----7------7------7-------------7------------9---5------------9---5--------| /
E|-----------------------5------5------5---3-----3------3---3-----3------3---|/

                        
                    
Tap to rate this tab
# A B C D E F G H I J K L M N O P Q R S T U V W X Y Z