Song name
# A B C D E F G H I J K L M N O P Q R S T U V W X Y Z

A Lot Like Birds - Orange Time Machines Care tab

-------------------------------------------------------------------------------
Orange Time Machines Care – A Lot Like Birds
-------------------------------------------------------------------------------
Tuning: Standard
7/8

Guitar I

  Part A (Intro)
e|---------------------------------------------------------------------------|\
B|---------------------------------------------------------------------------| \
G|---------------------------------------------------------------------------|  Repeat
D|---------------2p0---------------------------------------------------------|  8x
A|---------3p0-------3p0-2h3p0h2-------2p0-6/7p0---3\2-----------------------| /
E|-5p0-3h5-----5-----------------3h4p0-----------4-----4---------------------|/

Guitar II

  Part A
e|---5p0--8p0--5p0--8p0-3p0--5p0--8p0--5p0--8p0-3p0--|
B|--5----5----5----5--------5----5----5----5---------|
G|---------------------------------------------------|
D|---------------------------------------------------|
A|---------------------------------------------------|
E|---------------------------------------------------|

e|---5p0--8p0--5p0--8p0-3p0--5p0--8p0--5p0--8p0-10p0--|
B|--5----5----5----5--------5----5----5----5----------|
G|----------------------------------------------------|
D|----------------------------------------------------|
A|----------------------------------------------------|
E|----------------------------------------------------|

e|---5p0--8p0--5p0--8p0-3p0--5p0--8p0--5p0--8p0-3p0--|
B|--5----5----5----5--------5----5----5----5---------|
G|---------------------------------------------------|
D|---------------------------------------------------|
A|---------------------------------------------------|
E|---------------------------------------------------|

e|---5p0--8p0--5p0--8p0-3p0--5p0--8p0--5p0--8p0-10p0--|
B|--5----5----5----5--------5----5----5----5----------|
G|----------------------------------------------------|
D|----------------------------------------------------|
A|----------------------------------------------------|
E|----------------------------------------------------|

  "Il était une fois"
e|---5p0--8p0--5p0--8p0-3p0--5p0--8p0--5p0--8p0-3p0--|
B|--8----8----8----8--------8----8----8----8---------|
G|---------------------------------------------------|
D|---------------------------------------------------|
A|---------------------------------------------------|
E|---------------------------------------------------|

e|---5p0--8p0--5p0--8p0-3p0--5p0--8p0--5p0--8p0-10p0--|
B|--8----8----8----8--------8----8----8----8----------|
G|----------------------------------------------------|
D|----------------------------------------------------|
A|----------------------------------------------------|
E|----------------------------------------------------|

e|---5p0--8p0--5p0--8p0-3p0--5p0--8p0--5p0--8p0-3p0--|
B|--8----8----8----8--------8----8----8----8---------|
G|---------------------------------------------------|
D|---------------------------------------------------|
A|---------------------------------------------------|
E|---------------------------------------------------|

e|---5p0--8p0--5p0--8p0-3p0--5p0--8p0--5p0--8p0-10p0-5\--|
B|--8----8----8----8--------8----8----8----8-------------|
G|-------------------------------------------------------|
D|-------------------------------------------------------|
A|-------------------------------------------------------|
E|-------------------------------------------------------|

Guitar I

  Part B (Transition) [Delay set to dotted 8th]
e|-----8p0------8o------8p0------8p0-----------------------------------------|
B|---------------------------------------------------------------------------|
G|---5-----5--5----5--5-----5--5---------------------------------------------|
D|-7--------7-------7--------7-----------------------------------------------|
A|---------------------------------------------------------------------------|
E|---------------------------------------------------------------------------|(Repeat 2x)


Guitar I

  Part C (Verse) [Delay set to dotted 8th]
e|-----8p0------5\-----8p0------8/12------12p0-------8\------12-------13-----|
B|---------------------------------------------------------------------------|
G|---5-----5--5------5-----5--5---------9------9---9-------9----9---9--------|
D|-7--------7------7--------7--------10---------10------10-------10----------|
A|---------------------------------------------------------------------------|
E|---------------------------------------------------------------------------|


Guitar II 

  Part D (Ascending Harmony Over Transition) [Delay set to dotted 8th]
e|------12p0-------12p0-------12p0-------12p0--------------------------------|
B|---------------------------------------------------------------------------|
G|----9------9---9------9---9------9---9------9------------------------------|
D|-10---------10---------10---------10---------------------------------------|
A|---------------------------------------------------------------------------|
E|---------------------------------------------------------------------------|

e|------13p0---------13p0---------13p0---------13p0--------------------------|
B|---------------------------------------------------------------------------|
G|---10------10---10------10---10------10---10-------------------------------|
D|-12-----------12-----------12-----------12---------------------------------|
A|---------------------------------------------------------------------------|
E|---------------------------------------------------------------------------|

e|-------15p0---------15p0---------15p0---------15p0-------------------------|
B|---------------------------------------------------------------------------|
G|----12------12---12------12---12------12---12------------------------------|
D|-14-----------14-----------14-----------14---------------------------------|
A|---------------------------------------------------------------------------|
E|---------------------------------------------------------------------------|

e|-------17p0---------17p0---------17p0---------19\--------------------------|
B|---------------------------------------------------------------------------|
G|----14------14---14------14---14------14---14------------------------------|
D|-15-----------15-----------15-----------15---------------------------------|
A|---------------------------------------------------------------------------|
E|---------------------------------------------------------------------------|


Guitar III

  Part D
e|--------------------------------------------------------|
B|--------------------------------------------------------|
G|--------------------------------------------------------|
D|--14-14-14p5h9-14-14-14p5h9--14-14-14p5h9-14-14-14p5h9--|
A|--------------------------------------------------------|
E|--------------------------------------------------------|

e|--------------------------------------------------------|
B|--------------------------------------------------------|
G|--------------------------------------------------------|
D|--14-14-14p5h9-14-14-14p5h9--14-14-14p5h9-14-14-14p5h9--|
A|--------------------------------------------------------|
E|--------------------------------------------------------|

“Help guide me…”
e|--------------------------------------------------------|
B|--------------------------------------------------------|
G|--------------------------------------------------------|
D|--14\\\\\\\\\\------------------------------------------|
A|--------------------------------------------------------|
E|--------------------------------------------------------|

Guitar I

  Part E "I always take the fall..." [E-Bow and slide] 
e|--------------------------------------------------------------------------|
B|--------------------------------------------------------------------------|
G|--------------------------------------------------------------------------|
D|-3///7////10\\\\5////7//9\\7\\\\5\\\\3\\\\2////10////14\\9////12\\7\\\\5\\|
A|--------------------------------------------------------------------------|
E|--------------------------------------------------------------------------|

e|---------------------------------------------|
B|---------------------------------------------|
G|---------------------------------------------|
D|\\3//////7\\3//////12\\\10\\\\9\\\5\\\3\\7\\\|
A|---------------------------------------------|
E|---------------------------------------------|

Guitar II
e|-8--8--8--8--8--8--8--8--8--8--8--8--8--8--8--8--8--8--8--8--8--8--8--8--8--8--8--8--|
B|-5--5--5--5--5--5--5--5--5--5--5--5--5--5--6--6--6--6--6--6--6--8--8--8--8--8--8--8--|
G|-------------------------------------------------------------------------------------|
D|-------------------------------------------------------------------------------------|
A|-------------------------------------------------------------------------------------|
E|-------------------------------------------------------------------------------------|

e|-12-12-12-12-12-12-12-12-12-12-12-12-12-12-8--8--8--8--8--8--8--10-10-10-10-10-10-10-|
G|-8--8--8--8--8--8--8--8--8--8--8--8--8--8--8--8--8--8--8--8--8--8--8--8--8--8--8--8--|
D|-------------------------------------------------------------------------------------|
A|-------------------------------------------------------------------------------------|
E|-------------------------------------------------------------------------------------|

e|-10-10-10-10-10-10-10-10-10-10-10-10-10-10-7--7--7--7--7--7--7--7--7--7--7--7--7--7--|
B|-5--5--5--5--5--5--5--5--5--5--5--5--5--5--5--5--5--5--5--5--5--5--5--5--5--5--5--5--|
G|-------------------------------------------------------------------------------------|
D|-------------------------------------------------------------------------------------|
A|-------------------------------------------------------------------------------------|
E|-------------------------------------------------------------------------------------|

e|-8--8--8--8--8--8--8--8--8--8--8--8--8--8--5--5--5--5--5--5--5--5--5--5--5--5--5--5--|
B|-3--3--3--3--3--3--3--3--3--3--3--3--3--3--3--3--3--3--3--3--3--3--3--3--3--3--3--3--|
G|-------------------------------------------------------------------------------------|
D|-------------------------------------------------------------------------------------|
A|-------------------------------------------------------------------------------------|
E|-------------------------------------------------------------------------------------|

e|-7--7--7--7--7--7--7--7--7--7--7--7--7--7--7--7--7--7--7--7--7--7--7--7--7--7--7--7--|
B|-5--5--5--5--5--5--5--5--5--5--5--5--5--5--6--6--6--6--6--6--6--8--8--8--8--8--8--8--|
G|-------------------------------------------------------------------------------------|
D|-------------------------------------------------------------------------------------|
A|-------------------------------------------------------------------------------------|
E|-------------------------------------------------------------------------------------|

e|-5--5--5--5--5--5--5--5--5--5--5--5--5--5--5--5--5--5--5--5--5--5--5--5--5--5--5--5--|
B|-5--5--5--5--5--5--5--5--5--5--5--5--5--5--6--6--6--6--6--6--6--8--8--8--8--8--8--8--|
G|-------------------------------------------------------------------------------------|
D|-------------------------------------------------------------------------------------|
A|-------------------------------------------------------------------------------------|
E|-------------------------------------------------------------------------------------|

e|-1--1--1--1--1--1--1--1--1--1--1--1--1--1--1--1--1--1--1--1--1--1--1--1--1--1--1--1--|
B|-5--5--5--5--5--5--5--5--5--5--5--5--5--5--1--1--1--1--1--1--1--1--1--1--1--1--1--1--|
G|-------------------------------------------------------------------------------------|
D|-------------------------------------------------------------------------------------|
A|-------------------------------------------------------------------------------------|
E|-------------------------------------------------------------------------------------|

e|-4--4--4--4--4--4--4--4--4--4--4--4--4--4--0--0--0--0--0--0--0--7--7--7--7--7--7--7--|
B|-0--0--0--0--0--0--0--0--0--0--0--0--0--0--0--0--0--0--0--0--0--0--0--0--0--0--0--0--|
G|-------------------------------------------------------------------------------------|
D|-------------------------------------------------------------------------------------|
A|-------------------------------------------------------------------------------------|
E|-------------------------------------------------------------------------------------|

e|-12-12-12-12-12-12-12-12-12-12-12-12-12-12-12-12-12-12-12-12-12-12-12-12-12-12-12-12-|
B|-8--8--8--8--8--8--8--8--8--8--8--8--8--8--8--8--8--8--8--8--8--8--8--8--8--8--8--8--|
G|-------------------------------------------------------------------------------------|
D|-------------------------------------------------------------------------------------|
A|-------------------------------------------------------------------------------------|
E|-------------------------------------------------------------------------------------|


e|-10-10-10-10-10-10-10-10-10-10-10-10-10-10-10-10-10-10-10-10-10-10-10-10-10-10-10-10-|
B|-8--8--8--8--8--8--8--8--8--8--8--8--8--8--8--8--8--8--8--8--8--8--8--8--8--8--8--8--|
G|-------------------------------------------------------------------------------------|
D|-------------------------------------------------------------------------------------|
A|-------------------------------------------------------------------------------------|
E|-------------------------------------------------------------------------------------|

e|-8--8--8--8--8--8--8--8--8--8--8--8--8--8--7--7--7--7--7--7--7--7--7--7--7--7--7--7--|
B|-5--5--5--5--5--5--5--5--5--5--5--5--5--5--3--3--3--3--3--3--3--3--3--3--3--3--3--3--|
G|-------------------------------------------------------------------------------------|
D|-------------------------------------------------------------------------------------|
A|-------------------------------------------------------------------------------------|
E|-------------------------------------------------------------------------------------|

e|-5--5--5--5--5--5--5--7--7--7--7--7--7--7--8--8--8--8--8--8--8--10-10-10-10-10-10-10-|
B|-1--1--1--1--1--1--1--3--3--3--3--3--3--3--5--5--5--5--5--5--5--8--8--8--8--8--8--8--|
G|-------------------------------------------------------------------------------------|
D|-------------------------------------------------------------------------------------|
A|-------------------------------------------------------------------------------------|
E|-------------------------------------------------------------------------------------|

e|-8--8--8--8--8--8--8--10-10-10-10-10-10-10-12-12-12-12-12-12-12-15-15-15-15-15-15-15-|
B|-10-10-10-10-10-10-10-12-12-12-12-12-12-12-13-13-13-13-13-13-13-17-17-17-17-17-17-17-|
G|-------------------------------------------------------------------------------------|
D|-------------------------------------------------------------------------------------|
A|-------------------------------------------------------------------------------------|
E|-------------------------------------------------------------------------------------|

e|-13-13-13-13-13-13-13-12-12-12-12-12-12-12-10-10-10-10-10-10-10-7--7--7--7--7--7--7--|
B|-15-15-15-15-15-15-15-13-13-13-13-13-13-13-12-12-12-12-12-12-12-8--8--8--8--8--8--8--|
G|-------------------------------------------------------------------------------------|
D|-------------------------------------------------------------------------------------|
A|-------------------------------------------------------------------------------------|
E|-------------------------------------------------------------------------------------|

e|-5--5--5--5--5--5--5--8--8--8--8--8--8--8--------------------------------------------|
B|-6--6--6--6--6--6--6--10-10-10-10-10-10-10-------------------------------------------|
G|-------------------------------------------------------------------------------------|
D|-------------------------------------------------------------------------------------|
A|-------------------------------------------------------------------------------------|
E|-------------------------------------------------------------------------------------|
 
  (Transition into to 4/4)
e|-7--7--7--7--7--7--7--7--8--8--8--8--8--8--8--8--------------------------------------|
B|-8--8--8--8--8--8--8--8--10-10-10-10-10-10-10-10-------------------------------------|
G|-------------------------------------------------------------------------------------|
D|-------------------------------------------------------------------------------------|
A|-------------------------------------------------------------------------------------|
E|-------------------------------------------------------------------------------------|


e|-10-10-10-10-10-10-10-10-12-12-12-15-15-15-15-15-------------------------------------|
B|-12-12-12-12-12-12-12-12-13-13-13-13-13-13-13-13-------------------------------------|
G|-------------------------------------------------------------------------------------|
D|-------------------------------------------------------------------------------------|
A|-------------------------------------------------------------------------------------|
E|-------------------------------------------------------------------------------------|

Guitar I

  Part F (4/4) "Are you crawling away?" 
e|---------------------------------------------------------------------------|
B|-/13-13-13-13-13-13-13-13-------------13-13-13-13-12-12-12-12h13p12-12-----|
G|-------------------------12-12-12-12---------------------------------------|
D|---------------------------------------------------------------------------|
A|---------------------------------------------------------------------------|
E|---------------------------------------------------------------------------|

e|---------------------------------------------------------------------------|
B|---------------------------------------------------------------------------|
G|-14-14-12-12-12-12---------------------------------------------------------|
D|-------------------14-14-14-14---------------------------------------------|
A|---------------------------------------------------------------------------|
E|---------------------------------------------------------------------------|

e|---------------------------------------------------------------------------|
B|-/13-13-13-13-13-13-13-13-------------/15-15-15-15-12-12-12-12h13p12-12-12-|
G|-------------------------12-12-12-12---------------------------------------|
D|---------------------------------------------------------------------------|
A|---------------------------------------------------------------------------|
E|---------------------------------------------------------------------------|


e|---------------------------------------------------------------------------|
B|-13-15-15-15-15-15-15-15-15-17---------------------------------------------|
G|---------------------------------------------------------------------------|
D|---------------------------------------------------------------------------|
A|---------------------------------------------------------------------------|
E|---------------------------------------------------------------------------|

e|---------------------------------------------------------------------------|
B|-/17-17-17-17-17-17-17-17--------------17-17-17-17-15-15-15-15h17p15-15----|
G|--------------------------17-17-17-17--------------------------------------|
D|---------------------------------------------------------------------------|
A|---------------------------------------------------------------------------|
E|---------------------------------------------------------------------------|


e|---------------------------------------------------------------------------|
B|-13-13-12-12-12-12---------------------------------------------------------|
G|-------------------12-12-12-12---------------------------------------------|
D|---------------------------------------------------------------------------|
A|---------------------------------------------------------------------------|
E|---------------------------------------------------------------------------|

e|---------------------------------------------------------------------------|
B|-/13-13-13-13-13-13-13-13-------------13-13-13-13-12-12-12-12h13p12-12-----|
G|-------------------------12-12-12-12---------------------------------------|
D|---------------------------------------------------------------------------|
A|---------------------------------------------------------------------------|
E|---------------------------------------------------------------------------|

e|---------------------------------------------------------------------------|
B|---------------------------------------------------------------------------|
G|-14-14-12-12-12-12---------------------------------------------------------|
D|-------------------14-14-14-14-15------------------------------------------|
A|---------------------------------------------------------------------------|
E|---------------------------------------------------------------------------|


Guitar II

  Part F
e|-----------------------------------------------------------------|
B|-----------------------------------------------------------------|
G|-----------------------------------------------------------------|
D|-9-9-9-9-9-9-9-9-10-10-10-10-10-10-10-10-12-12-12-12-12-12-12-12-|
A|-----------------------------------------------------------------|
E|-----------------------------------------------------------------|

e|-------------------------|
B|-------------------------|
G|-------------------------|
D|-14-14-14-14-14-14-14-14-|
A|-------------------------|
E|-------------------------|

e|---------------------------------------------------------------------------|
B|---------------------------------------------------------------------------|
G|---------------------------------------------------------------------------|
D|--15-15-15-15-15-15-15-15-15-------------------------14-14-14-14-14-14-14--|
A|-----------------------------15-15-15-15-15-15-15-15-----------------------|
E|---------------------------------------------------------------------------|

e|-------------------------|
B|-------------------------|
G|-------------------------|
D|-14----------------------|
A|----14-14-14-14-14-14-14-|
E|-------------------------|

e|---------------------------------------------------------------------------|
B|---------------------------------------------------------------------------|
G|---------------------------------------------------------------------------|
D|--15-15-15-15-15-15-15-15-15-------------------------14-14-14-14-14-14-14--|
A|-----------------------------15-15-15-15-15-15-15-15-----------------------|
E|---------------------------------------------------------------------------|

e|-------------------------|
B|-------------------------|
G|----12-12-12-12-12-12-12-|
D|-14----------------------|
A|-------------------------|
E|-------------------------|

e|---------------------------------------------------------------------------|
B|---------------------------------------------------------------------------|
G|--14-14-14-14-14-14-14-14-14-------------------------12-12-12-12-12-12-12--|
D|-----------------------------15-15-15-15-15-15-15-15-----------------------|
A|---------------------------------------------------------------------------|
E|---------------------------------------------------------------------------|

e|-------------------------|
B|-------------------------|
G|-12----------------------|
D|----14-14-14-14-14-14-14-|
A|-------------------------|
E|-------------------------|

e|---------------------------------------------------------------------------|
B|---------------------------------------------------------------------------|
G|--14-14-14-14-14-14-14-14-14-------------------------12-12-12-12-12-12-12--|
D|-----------------------------15-15-15-15-15-15-15-15-----------------------|
A|---------------------------------------------------------------------------|
E|---------------------------------------------------------------------------|

e|-------------------------|-----------------------|
B|-------------------------|-----------------------|
G|-12----------------------|-----------------------|
D|----14-14-14-14-12-12-12-|--15~~~~~~~~~~~~~~~~~~~|
A|-------------------------|-----------------------|
E|-------------------------|-----------------------|

Guitar III

  Part F
e|---------------------------------------------------------------------------|
B|-/17-17-17-17-17-17-17-17-17-17-17-17-17-17-17-17--------------------------|
G|---------------------------------------------------------------------------|
D|---------------------------------------------------------------------------|
A|---------------------------------------------------------------------------|
E|---------------------------------------------------------------------------|

e|---------------------------------------------------------------------------|
B|-15-15-15-15-15-15-15-15-12-12-12-12-12-12-12-12---------------------------|
G|---------------------------------------------------------------------------|
D|---------------------------------------------------------------------------|
A|---------------------------------------------------------------------------|
E|---------------------------------------------------------------------------|

e|---------------------------------------------------------------------------|
B|-/17-17-17-17-17-17-17-17-17-17-17-17-/20-20-20-20-------------------------|
G|---------------------------------------------------------------------------|
D|---------------------------------------------------------------------------|
A|---------------------------------------------------------------------------|
E|---------------------------------------------------------------------------|


e|-------------------------/17-17-17-17-15-15-15-15--------------------------|
B|-15-15-15-15-15-15-15-15---------------------------------------------------|
G|---------------------------------------------------------------------------|
D|---------------------------------------------------------------------------|
A|---------------------------------------------------------------------------|
E|---------------------------------------------------------------------------|

e|-/20-20-20-20-20-20-20-20-20-20-20-20-20-20-20-20--------------------------|
B|---------------------------------------------------------------------------|
G|---------------------------------------------------------------------------|
D|---------------------------------------------------------------------------|
A|---------------------------------------------------------------------------|
E|---------------------------------------------------------------------------|

e|-19-19-19-19-19-19-19-19-19\15-15-15-15-15\12-12-12-12---------------------|
B|---------------------------------------------------------------------------|
G|---------------------------------------------------------------------------|
D|---------------------------------------------------------------------------|
A|---------------------------------------------------------------------------|
E|---------------------------------------------------------------------------|

e|---------------------------------------------------------------------------|
B|-/13-13-13-13-13-13-13-13-------------13-13-13-13-12-12-12-12h13p12-12-----|
G|-------------------------12-12-12-12---------------------------------------|
D|---------------------------------------------------------------------------|
A|---------------------------------------------------------------------------|
E|---------------------------------------------------------------------------|

e|---------------------------------------------------------------------------|
B|---------------------------------------------------------------------------|
G|-14-14-12-12-12-12---------------------------------------------------------|
D|-------------------14-14-14-14-15------------------------------------------|
A|---------------------------------------------------------------------------|
E|---------------------------------------------------------------------------|

Guitar I

  Part G (Intro Reprise) (Back to 7/8)
e|---------------------------------------------------------------------------|\
B|---------------------------------------------------------------------------| \
G|---------------------------------------------------------------------------|  Repeat 
D|---------------2p0---------------------------------------------------------|  2x
A|---------3p0-------3p0-2h3p0h2-------2p0-6/7p0---3\2-----------------------| /
E|-5p0-3h5-----5-----------------3h4p0-----------4-----4---------------------|/

Guitar II
  
  Part G
e|---5p0--8p0--5p0--8p0-3p0--5p0--8p0--5p0--8p0-3p0--|
B|--5----5----5----5--------5----5----5----5---------|
G|---------------------------------------------------|
D|---------------------------------------------------|
A|---------------------------------------------------|
E|---------------------------------------------------|

e|---5p0--8p0--5p0--8p0-3p0--5p0--8p0--5p0--8p0-10p0--|
B|--5----5----5----5--------5----5----5----5----------|
G|----------------------------------------------------|
D|----------------------------------------------------|
A|----------------------------------------------------|
E|----------------------------------------------------|




************************************

| /   slide up
| \   slide down
| h   hammer-on
| p   pull-off
| ~   vibrato
| +   harmonic
| x   Mute note
| b   Bend
| pb  Pre-bend
| br  Bend release
| pbr Pre-bend release
| brb Bend release bend
| P.M.Palm mute

************************************
Tap to rate this tab
 
# A B C D E F G H I J K L M N O P Q R S T U V W X Y Z