Song name
# A B C D E F G H I J K L M N O P Q R S T U V W X Y Z

A Moment Before Breathing - Intro tab

Guitar 1
-----------------------------------------------------| repeat 12x
-----------------------------------------------------|
--------------10--9-----------10---------------------|
0--10--12--0---------0--7--8------8--7--10--8--7--0--|
-----------------------------------------------------|
-----------------------------------------------------|

Guitar 2
-----------------------------------------------------|
-----------------------------------------------------|
-----------------------------------------------------|
0----------------------------------------------------|
0----------------------------------------------------|
0----------------------------------------------------|

Guitar 1 keeps repeating.

Guitar 2 first break down
------------------------------------------------------|
------------------------------------------------------|
------------------------------------------------------|
0--0-----------------------0-0-0---------0-0-0--------|
0--0-----------------------0-0-0---------0-0-0--------|
0--0-----------------------0-0-0---------0-0-0--------|
----                       -----          ------------|
p.m.                       p.m.          p.m.


second breakdown
------------------------------------------------------|
------------------------------------------------------|
------------------------------------------------------|
0--0--------------0--0----0--0----0--0----------------|
0--0--------------0--0----0--0----0--0----------------|
0--0--------------0--0----0--0----0--0----------------|
----              ----    ----    --------------------|
p.m.              p.m.    p.m.    p.m.

third breakdown is the same as the second but with both guitars.


www.myspace.com/amomentbeforebreathing
Tap to rate this tab
# A B C D E F G H I J K L M N O P Q R S T U V W X Y Z