Song name
# A B C D E F G H I J K L M N O P Q R S T U V W X Y Z

A Perfect Circle - Crimes tab

Band- A Perfect Circle
Song- Crimes

Tuning:
Db Standard: Db Gb B E Ab Db

|------------|
|------------| 6 times
|------------|
|-5----------|
|------------|
|------------|

Tremolo pick both of these two:
|-------------------------------|----------------------|
|-14---15-17-------18--17-15-14-|----15-10-------------|
|-------------------------------|----------------------|
|-------------------------------|----------------------|
|-------------------------------|----------------------|
|-------------------------------|----------------------|

|-------------------------------|-------17-------------|-18-17----------------|
|-14---15-17-------18--17-15-14-|----15----------------|----------------------|
|-------------------------------|----------------------|----------------------|
|-------------------------------|----------------------|----------------------|
|-------------------------------|----------------------|----------------------|
|-------------------------------|----------------------|----------------------|



|----------------------------------------------|---------------------------|
|----------------------------------------------|---------------------------|
|-------------------------------------12-------|---------------------------|
|-12-14--14-12-14--14-12-14--14-12-14----14-12-|--14--14-12-14-------------|
|----------------------------------------------|---------------------------|
|----------------------------------------------|---------------15----------|

|----------------------------------------------|---------------------------|
|----------------------------------------------|---------------------------|
|-------------------------------------12-------|---------------------------|
|-12-14--14-12-14--14-12-14--14-12-14----14-12-|--14--14-12-14-19----------|
|----------------------------------------------|---------------------------|
|----------------------------------------------|---------------------------|


|-------------------------------|----------------------|
|-------------------------------|----------------------|
|-12---13-15-------16--15-13-12-|----13-8--------------|
|-------------------------------|----------------------|
|-------------------------------|----------------------|
|-------------------------------|----------------------|
Tap to rate this tab
# A B C D E F G H I J K L M N O P Q R S T U V W X Y Z