Song name
# A B C D E F G H I J K L M N O P Q R S T U V W X Y Z

A Perfect Circle - The Outsider chords

Tiny bit of distortion
E|----------------------------------------------------------------------|
B|----------------------------------------------------------------------|
G|----------------------------------------------------------------------|
D|----11-----11-----------11-----11------------11-----11-----------11---|
A|--------11-----------------11-------------------11-------------------9|
E|-9--------------------9------------------9---------------------9------|

E|----------------------------------------------------------------------|
B|----------------------------------------------------------------------|
G|-----------------------------------------------6----6-------6\4\3-----|
D|--------11---11----------11---11-----------------6----------------4---|
A|----------9-----------------9-----------------------------------------|
E|----7-----------------7----------------7\5----------------5-----------|
More distortion...but still not much
E|----------------------------------------------------------------------|
B|----------------------------------------------------------------------|
G|----------------------------------------------------------------------|
D|-----11-----11--------11-----11-----11-----11----12-11-9-7h9p7--------|
A|---------11--------------11------------11-----------------------------|
E|--9----------------9----------------9---------------------------------|

E|------------------------------------------------------------|
B|------------------------------------------------------------|
G|----------------------------------------------4/5---6-5-----|
D|-----11---11-------11---11--------7p5-----------------------|
A|--------9-------------9------4/5----------------------------|
E|--7--------------7------------------------------------------|
Medium Distortion
E|--0-------------------------------4-----------------------|
B|--0-------------------------------0-----------------------|
G|--4-------------------------------6-----------------------|
D|--4-------------------------------6-----------------------|
A|----------------------------------------------------------|
E|----------------------------------------------------------|
Play this with with distortion, very low volume and barely palm muted.
E|---4------------------------------------------------------|
B|---0------------------------------------------------------|
G|---6------------------------------------------------------|
D|---6------------------------------------------------------|
A|----------------------------------------------------------|
E|----------------------------------------------------------|
Tap to rate this tab
# A B C D E F G H I J K L M N O P Q R S T U V W X Y Z