Song name
# A B C D E F G H I J K L M N O P Q R S T U V W X Y Z

A Perfect Circle - Weak And Powerless Tilling My Grave Mix tab

A perfect circle - weak and powerless (tilling my grave mix)
Tabbed by HAAvard
The song is played in Drop D flat. Regular drop D half a step down.

Didn't bother to put up everything perfectly, but you will get the general idea. Listen 
the song.. comment,- ask questions, or make suggestions to what's wrong.

Palm mutes = figure it out yourself, shouldn't be hard to hear where you should PM in the song..
/ = slide up
\ = slide down
H = hammer on
P = pull off
X = muted string

Intro
E]------------------------------------------------------------------------|
B]------------------------------------------------------------------------|
G]------------------------------------------------------------------------|
D]----------------------------12--12--12\-(0)---10h12--10-(0)-15----------|
A]---5------------------------12--12--12\-(0)---10h12--10-(0)-15----------|
D]-3---0--0--3h5--3p0--6------12--12--12\-(0)---10h12--10-(0)-15----------|

There are some slides here. Improvise, or listen to the song..

E]------------------------------------------------------------------------|
B]------------------------------------------------------------------------|
G]------------------------------------------------------------------------|
D]---------------------------1--1------1--1----1--1-----0------13---------|
A]----5----------------------1--1------1--1----1--1-----0------13---------|
D]-3-----0--0---3h5-3p0------1--1------1--1----1--1-----0------13---------|

Play this 2 times

Verse
E]------------------------------------------------------------------------|
B]------------------------------------------------------------------------|
G]------------------------------------------------------------------------|
D]------------------------------------------------------------------------|
A]------------------------------------------------------------------------|
D]----3------0-0------3-------0-0-----3-----0-0----3b4-(3)-0-5------------|
X2

E]----------------------------------------------|
B]----------------------------------------------|
G]----------------------------------------------|
D]----------------------------------------------|
A]----------------------------------------------|
D]----3-------0-0-------3b4-(3)-0-5-------------|

X3

E]-----------------------------------------------------------------|
B]-----------------------------------------------------------------|
G]-----------------------------------------------------------------|
D]--------------------------0--------------------------------------|
A]--------------------------0--------------------------------------|
D]----3---------0---0-------0--------------------------------------|

Chorus

E]-------------------------------------------------------------------------------------|
B]-------------------------------------------------------------------------------------|
G]-------------------------------------------------------------------------------------|
D]----5-----------------3----------------12-------------10-----------------------------|
A]----5-----------------3----------------12-------------10-----------------------------|
D]----5-----------------3----------------12-------------10-----------------------------|

Here are the chords.. the strumming pattern is easy enough to figure out.

Riff/solo  1

E]------------------------------------------------------------------------|
B]------------------------------------------------------------------------|
G]------------------------------------------------------------------------|
D]-------------------------3----------------------------------------------|
A]-------------------0-3-5----5---3----------------------3/5\3------------|
D]--0-0---0h3h5--------------------------0--0---0h3h5---------------------|


----------------------------------------------------------------------------------------|
----------------------------------------------------------------------------------------|
--------------------------------------------------------------------------------5----5--|
------------------------------------------3-------------------------------------5----5--|
-3/5--------------------------0---3---5-------5---3----------------------3------3----3--|
---------0--0------0h3h5----------------------------------0--0---0h3h5------------------|


Verse

E]------------------------------------------------------------------------|
B]------------------------------------------------------------------------|
G]------------------------------------------------------------------------|
D]------------------------------------------------------------------------|
A]------------------------------------------------------------------------|
D]----3---------0---0---------3b4-(3)--0--5-------------------------------|

X3

E]----------------------------------------------------------------------------|
B]----------------------------------------------------------------------------|
G]----------------------------------------------------------------------------|
D]--------------------------0-------------------------------------------------|
A]--------------------------0-------------------------------------------------|
D]----3---------0---0-------0-------------------------------------------------|

Chorus

E]------------------------------------------------------------------------------------|
B]------------------------------------------------------------------------------------|
G]------------------------------------------------------------------------------------|
D]----5----------------3----------------12-------------10-----------------------------|
A]----5----------------3----------------12-------------10-----------------------------|
D]----5----------------3----------------12-------------10-----------------------------|

Riff/solo 2

E]-----------------------------------------------------------------------------|
B]-----------------------------------------------------------------------------|
G]-7-7-7---------------------------------------------------5---5---------------|
D]-------8-8-8-7b8-(7)-5-5/7--7-7-5--3--0-----0--0----5h7----------7-5-3--0----|
A]-----------------------------------------------------------------------------|
D]-----------------------------------------------------------------------------|

------------------------------------------------------------------------|
------------------------------------------------------------------------|
------------------------------------------------------------------------|
--0--0-------------14-14-14---15--17------------------------------------|
-------5/7/8-8/10--x--x--x----x---x-------------------------------------|
-------------------12-12-12---13--15------------------------------------|

                   ^Strum fast many times
                    Listen to the song for the strum pattern (i didn’t
                    bother to put it up perfectly)

E]------------------------------------------------------------------------|
B]------------------------------------------------------------------------|
G]------------------------------------------------------------------------|
D]--19--17--15--17--15--14--15--14--12--14--12--10--12--10--9--10--9--7---|
A]--x---x---x---x---x---x---x---x---x---x---x---x---x---x---x--x---x--x---|
D]--17--15--13--15--13--12--13--12--10--12--10--8---10--8---7--8---7--5---|

Some slides here.. again, - improvise or listen to the song to get the feel of it.

------------------------------------------------------------------------|
------------------------------------------------------------------------|
------------------------------------------------------------------------|
--9--7---5--7---5--5---7------------------------------------------------|
--x--x---x--x---x--x---7------------------------------------------------|
--7--5---3--5---3--3---5------------------------------------------------|

Directly over to:

E]------------------------x----------------------------------------|
B]------------------------3----------------------------------------|
G]------------------------2----------------------------------------|
D]---3------5-------3-----0----3----5-------8--8-8-8--8-8h10-10-10-|
A]---3------5-------3-----0----3----5-------8--8-8-8--8-8h10-10-10-|
D]---3------5-------3-----0----3----5-------8--8-8-8--8-8h10-10-10-|

Chorus

E]-------------------------------------------------------------------------------------|
B]-------------------------------------------------------------------------------------|
G]-------------------------------------------------------------------------------------|
D]----5---------------3----------------12-------------10-------------------------------|
A]----5---------------3----------------12-------------10-------------------------------|
D]----5---------------3----------------12-------------10-------------------------------|

Chorus the second time:

E]--------------------------------------------------------------------------|
B]--------------------------------------------------------------------------|
G]--------------------------------------------------------------------------|
D]-5--------3-------12------10h12-12\-(0)----10h12/15--15-------------------|
A]-5--------3-------12------10h12-12\-(0)----10h12/15--15-------------------|
D]-5--------3-------12------10h12-12\-(0)----10h12/15--15-------------------|

Again:

E]-------------------------------------------------------------------------------------|
B]-------------------------------------------------------------------------------------|
G]-------------------------------------------------------------------------------------|
D]----5---------------3----------------12-------------10-------------------------------|
A]----5---------------3----------------12-------------10-------------------------------|
D]----5---------------3----------------12-------------10-------------------------------|

Last time:

E]----------------------------------------------------------------------------------|
B]----------------------------------------------------------------------------------|
G]----------------------------------------------------------------------------------|
D]----5--------------3----------------12-------------10----8-------0----------------|
A]----5--------------3----------------12-------------10----8-------0----------------|
D]----5--------------3----------------12-------------10----8-------0----------------|

End of the song.:)
Tap to rate this tab
# A B C D E F G H I J K L M N O P Q R S T U V W X Y Z