Song name
# A B C D E F G H I J K L M N O P Q R S T U V W X Y Z

A Perfect Circle - By And Down tab

Artist - A Perfect Circle
Song - By and Down
Tab - Rodrigo Bardin

Tuning - Standard

------------------

Here are the chords (to play acoustic), some of the other sections and the final solo. 
This is my 1st tab and I hope you have fun playing it. Feel free to correct it. Also, 
thanks to my friend Gregory who helped me identify the chords. |||||

------------------


Am F Dm F (2x)


** this is the keyboard part, if you want to play it instead of the chords. Play it 2x **

e|-------8--10-----------------|
B|---10----------10--13--------|
G|-----------------------------|
D|-----------------------------|
A|-----------------------------|
E|-----------------------------|

e|-------8--10-----------------|
B|---10----------10--13--------|
G|-----------------------------|
D|-----------------------------|
A|-----------------------------|
E|-----------------------------|

e|-------8--12-----------------|
B|---10----------10--13--------|
G|-----------------------------|
D|-----------------------------|
A|-----------------------------|
E|-----------------------------|

e|-------8--10-----------------|
B|---10----------8--12--10-----|
G|-----------------------------|
D|-----------------------------|
A|-----------------------------|
E|-----------------------------|



Am                        F
Moving in and out of the shadows.
        Dm
It's no easy mission,
        F
Holding on to how I picture you.


Am F Dm F (2x)


Am                    F
Showing only bits and pieces,
         Dm
Till the tide betrays you,
          F
And your empty allocution.


Am F Dm F


Am                                            F
Searching your eyes for a hint or a trace of humility.
Dm                                              F
Searching your eyes for the saint is an act of futility.
Am
Searching your eyes for a hint or a trace of it.
F
Searching your eyes for humility.
Dm
Searching your eyes for a hint or a trace,
            F
I'm still searching, searching.


Am F Dm F (2x)


Am                    F
Showing only bits and pieces,
          Dm
Till the light betrays you,
           F
And your empty allocution.
         Am                    F
Rode the Piper by and down the river.
        Dm
Carcass crippled underneath,
             F
The pounding waves of adoration.


Bridge

e|----------|
B|----------|
G|----------|
D|----------|
A|----7-----|
E|----5-----| 37x


e|----------------------------------------------------------------------|
B|----------------------------------------------------------------------|
G|----------------------------------------------------------------------|
D|----------------------------------------------------------------------|
A|----7-7-7-7-7-9-9-9-10-9-5-7------------------------------------------|
E|----5-5-5-5-5-7-7-7--8-7-3-5------------------------------------------|

e|----------------------------------------------------------------------|
B|----------------------------------------------------------------------|
G|----------------------------------------------------------------------|
D|----------------------------------------------------------------------|
A|----7-7-7-7-7-7-7-7-7-7-7-7-9-10-10-10-10-9-7-12-12-12-12-9-5-7-------|
E|----5-5-5-5-5-5-5-5-5-5-5-5-7--8--8--8--8-7-5-10-10-10-10-7-3-5-------|

e|----------------------------------------------------------------------|
B|----------------------------------------------------------------------|
G|----------------------------------------------------------------------|
D|----------------------------------------------------------------------|
A|----7-7-7-7-7-7-7-7-7-7-7-7-9-9-9-9-9-9-10-10-10-10-------------------|
E|----5-5-5-5-5-5-5-5-5-5-5-5-7-7-7-7-7-7--8--8--8--8-------------------|


      Am                      F
Pied Piper float on down the river.
          Dm
Bloated carcass, crippled knee,
       F
The weight of adoration.
Am                        F
Moving in and out of the shadows.
        Dm
It's no easy mission,
        F
Holding on to how I picture you.

Am F Dm F (2x)

Am


** for the final part, you can play the chords (above), but I also wrote the solo below **


** final solo **


e|----12p13p12\10--10p12p10--------12p13p12\10--17--15--------------------|
B|---------------------------10-8-----------------------------------------|
G|------------------------------------------------------------------------|
D|------------------------------------------------------------------------|
A|------------------------------------------------------------------------|
E|------------------------------------------------------------------------|


e|----12p13p12\10--10p12p10-----------------------------------------------|
B|---------------------------10--8--13--13--13--13\12--12--12--13--10-----|
G|------------------------------------------------------------------------|
D|------------------------------------------------------------------------|
A|------------------------------------------------------------------------|
E|------------------------------------------------------------------------|
Tap to rate this tab
# A B C D E F G H I J K L M N O P Q R S T U V W X Y Z