Song name
# A B C D E F G H I J K L M N O P Q R S T U V W X Y Z

A Perfect Circle - By And Down tab

"By and Down"
by: A Perfect Circle
album: "Three Sixty"

Intro:

Guitar 2:

E|---------------------|--------------------|-------12-----------|----------------------|
B|-----13-15--------13-|----13-15--------13-|----13-----------13-|----13-15------12-----|
G|--14-----------14----|-14-----------14----|-14-----------14----|-14---------12----14--|
D|---------------------|--------------------|--------------------|----------------------|
A|---------------------|--------------------|--------------------|----------------------|
D|---------------------|--------------------|--------------------|----------------------|

Guitar 1:

E|--12-----13-12-10----|-12-----13-12-10----|-12-----13-12-10----|-15-------------------|
B|------------------13-|-----------------13-|-----------------13-|----------12----------|
G|---------------------|--------------------|--------------------|----------------------|
D|---------------------|--------------------|--------------------|----------------------|
A|---------------------|--------------------|--------------------|----------------------|
D|---------------------|--------------------|--------------------|----------------------|

Verse:

(Just in case: here, I'm playing the piano part with the 5th string,
but, it's actually with the 6th or 7th on Drop A, but to make it easy,
you can also play it on the 5th and you will have the same sound)

E|----------|---------|---------|----------|
B|----------|---------|---------|----------|
G|--2-------|-10------|-2-------|-10----9--|
D|--2-------|-10------|-2-------|-10----9--|
A|--0-------|-8-------|-0-------|-8-----7--|
D|----------|---------|---------|----------|

Moving in and out of the shadows
Its no easier mission
Holding on to how I picture you

Guitar 1:

E|---------------------------------|---------------------------------|
B|---------------------------------|----------------------------8\---|
G|--9--9-9-9--9-9--10p9-9-10p9-9-7-|-9--9-9-9--9-9--10p9-9-10p9------|
D|---------------------------------|---------------------------------|
A|---------------------------------|---------------------------------|
D|---------------------------------|---------------------------------|

E|---------------------------------|---------------------------------|
B|---------------------------------|---------------------------------|
G|--9--9-9-9--9-9--10p9-9-10p9-9-7-|-9--(9)--(9)--(9)----------------|
D|---------------------------------|------------------9--(9)--10-7---|
A|---------------------------------|---------------------------------|
D|---------------------------------|---------------------------------|

Guitar 2:

E|---------------------|--------------------|-------12-----------|----------------------|
B|-----13-15--------13-|----13-15--------13-|----13-----------13-|----13-15------12-----|
G|--14-----------14----|-14-----------14----|-14-----------14----|-14---------12----14--|
D|---------------------|--------------------|--------------------|----------------------|
A|---------------------|--------------------|--------------------|----------------------|
D|---------------------|--------------------|--------------------|----------------------|

Showing only bits and pieces
Till the tide betrays you
And your empty allocution

Guitar 1:

E|---------------------------------|---------------------------------|
B|---------------------------------|----------------------------8\---|
G|--9--9-9-9--9-9--10p9-9-10p9-9-7-|-9--9-9-9--9-9--10p9-9-10p9------|
D|---------------------------------|---------------------------------|
A|---------------------------------|---------------------------------|
D|---------------------------------|---------------------------------|

E|---------------------------------|---------------------------------|
B|---------------------------------|---------------------------------|
G|--9--9-9-9--9-9--10p9-9-10p9-9-7-|-9--(9)--(9)--(9)----------------|
D|---------------------------------|------------------9--(9)--10-7---|
A|---------------------------------|---------------------------------|
D|---------------------------------|---------------------------------|

Guitar 1:

E|-----|--------------|----|------------------------------------|----|----|------------------|
B|-----|--------------|----|------------------------------------|----|----|------------------|
G|-----|--------------|----|---------------------7-7-7----------|----|----|------------------|
D|--7--|-7-9-9-9-10-7-|-7--|-7-9-10-10-10-10-9-7----------------|-7--|-9--|-10-10-10-10------|
A|-----|--------------|----|---------------------------10-10-10-|----|----|-------------8-8--|
D|-----|--------------|----|------------------------------------|----|----|------------------|

Searching your eyes for a hint or a trace of humility
Searching your eyes for the saint is an act of futility
Searching your eyes for a hint or a trace of it
searching your eyes for humility
searching your eyes for a hint or a trace
I'm still searching, searching...

Interlude 1:

Guitar 1:

E|---------------------------------|---------------------------------|
B|---------------------------------|---------------------------------|
G|---------------------------------|--------------------------7pbr---|
D|---------------------------------|--------------------5-7-9--------|
A|--7--7-7-7--7-7-9p7--7-9p7--7-5--|--7--7-7-7-----7--8--------------|
D|---------------------------------|---------------------------------|

E|---------------------------------|---------------------------------|
B|---------------------------------|---------------------------------|
G|--9--9-9-9--9-9--10p9-9-10p9-9-7-|-9--(9)--(9)--(9)----------------|
D|---------------------------------|------------------9--(9)--10-7---|
A|---------------------------------|---------------------------------|
D|---------------------------------|---------------------------------|

E|---------------------------------|---------------------------------|
B|---------------------------------|---------------------------------|
G|---------------------------------|---------------------------------|
D|--7-7---7-7---7-9-9-10-10\7-7----|--7-7---7-7---7-9-9-10-10\7-7----|
A|---------------------------------|---------------------------------|
D|---------------------------------|---------------------------------|

E|---------------------------------|---------------------------------|
B|---------------------------------|---------------------------------|
G|---------------------------------|---7---------7---------7---------|
D|--7-7---7-7---7-9-9-10-10\7-7----|--------7-------------------7----|
A|---------------------------------|------------------10-------------|
D|---------------------------------|---------------------------------|

Guitar 2:

E|--------------|--------------|--------------|--------------|
B|--------------|--------------|--------------|--------------|
G|--2--2--2--2--|--------------|--7--7--7--7--|--5--5--5--5--|
D|--2--2--2--2--|--3--3--3--3--|--7--7--7--7--|--5--5--5--5--|
A|--0--0--0--0--|--3--3--3--3--|--5--5--5--5--|--3--3--3--3--|
D|--------------|--3--3--3--3--|--------------|--------------|

Verse:

Guitar 1:

E|-------------------|-------------------|-------------------|-------------------|
B|-------------------|-------------------|-------------------|--8----------------|
G|--9----10-9-7------|--9----10-9-7------|--9----10-9-7------|-------------------|
D|--------------10-9-|--------------10-9-|--------------10-9-|---------9--10--7--|
A|-------------------|-------------------|-------------------|-------------------|
D|-------------------|-------------------|-------------------|-------------------|

Showing all the missing pieces
Till the light betrays you and your empty allocution

Guitar 1:

E|---------------------------------|---------------------------------|
B|---------------------------------|---------------------------------|
G|---------------------------------|---------------------------------|
D|--7-7---7-7---7-9-9-10-10\7-7----|--7-7---7-7---7-9-9-10-10\7-7----|
A|---------------------------------|---------------------------------|
D|---------------------------------|---------------------------------|

E|---------------------------------|-------------------|-------------|
B|---------------------------------|-------------------|-------------|
G|--7-7---7-7---5-5-5-7-7\---------|--10-10-10-10-10-9-|-9-10-9-7-9--|
D|-------------------------7-7-----|-------------------|-------------|
A|---------------------------------|-------------------|-------------|
D|---------------------------------|-------------------|-------------|

Saw the Piper by and down the river
Caught his crippled alchemy
From pounding waves of adoration

Interlude 2

Guitar 1:

E|-----|----------------|----|----------------------------------|-----|-----|--------------|
B|-----|----------------|----|----------------------------------|-----|-----|--------------|
G|-----|----------------|----|---------------------7-7-7-7------|-----|-----|-5-5-5-5------|
D|--7--|--7-9-9-9-10-7--|-7--|-7-9-10-10-10-10-9-7-7-7-7-7-5-5--|--7--|--9--|-5-5-5-5-3-3--|
A|--7--|--7-9-9-9-10-7--|-7--|-7-9-10-10-10-10-9-7-5-5-5-5-5-5--|--7--|--9--|-3-3-3-3-3-3--|
D|--7--|--7-9-9-9-10-7--|-7--|-7-9-10-10-10-10-9-7---------5-5--|--7--|--9--|---------3-3--|

Guitar 2:

E|-----|----------------|----|----------------------------------|-----|--------------------|
B|-----|----------------|----|----------------------------------|-----|--------------------|
G|-----|----------------|----|---------------------7-7-7-7------|-----|--------------------|
D|--7--|--7-9-9-9-10-7--|-7--|-7-9-10-10-10-10-9-7-7-7-7-7-5-5--|--0--|-3-3-3-3-3-3-3-3-3--|
A|--7--|--7-9-9-9-10-7--|-7--|-7-9-10-10-10-10-9-7-5-5-5-5-5-5--|--0--|-3-3-3-3-3-3-3-3-3--|
D|--7--|--7-9-9-9-10-7--|-7--|-7-9-10-10-10-10-9-7---------5-5--|--0--|-3-3-3-3-3-3-3-3-3--|

Verse:

Guitar 1:

E|---------------------------------|---------------------------------|
B|---------------------------------|----------------------------8\---|
G|--9--9-9-9--9-9--10p9-9-10p9-9-7-|-9--9-9-9--9-9--10p9-9-10p9------|
D|---------------------------------|---------------------------------|
A|---------------------------------|---------------------------------|
D|---------------------------------|---------------------------------|

E|---------------------------------|---------------------------------|
B|---------------------------------|---------------------------------|
G|--9--9-9-9--9-9--10p9-9-10p9-9-7-|-9--(9)--(9)--(9)----------------|
D|---------------------------------|------------------9--(9)--10-7---|
A|---------------------------------|---------------------------------|
D|---------------------------------|---------------------------------|

Guitar 2:

E|--------------|--------------|--------------|--------------|
B|--------------|--------------|--------------|--------------|
G|--2--2--2--2--|--------------|--7--7--7--7--|--5--5--5--5--|
D|--2--2--2--2--|--3--3--3--3--|--7--7--7--7--|--5--5--5--5--|
A|--0--0--0--0--|--3--3--3--3--|--5--5--5--5--|--3--3--3--3--|
D|--------------|--3--3--3--3--|--------------|--------------|

Pied Piper float on down the river
Bloated carcass crippled me
The weight of adoration
Moving in and out of the shadows
Its no easy mission
Holding on to how I picture you

Interlude 3:

Guitar 2:

E|--------------|--------------|--------------|--------------|
B|--------------|--------------|--------------|--------------|
G|--2--2--2--2--|--------------|--7--7--7--7--|--5--5--5--5--|
D|--2--2--2--2--|--3--3--3--3--|--7--7--7--7--|--5--5--5--5--|
A|--0--0--0--0--|--3--3--3--3--|--5--5--5--5--|--3--3--3--3--|
D|--------------|--3--3--3--3--|--------------|--------------|

Guitar 1:

E|--12p13-12-10-10p12-10--------|-12p13-12-10--17-15-----------|
B|-----------------------10-----|------------------------------|
G|--------------------------12--|------------------------------|
D|------------------------------|------------------------------|
A|------------------------------|------------------------------|
D|------------------------------|------------------------------|

E|--12p13-12-10-10p12-10--------|------------------------------|
B|-----------------------10-----|--13------12------10----------|
G|--------------------------12--|------------------------------|
D|------------------------------|------------------------------|
A|------------------------------|------------------------------|
D|------------------------------|------------------------------|

Outro:

Guitar 2:

E|--------------|
B|--------------|
G|--------------|
D|--------0-----|
A|--0--------3--|
D|-----3--------|

Guitar 1:

E|---------------------|--------------------|-------12-----------|----------------------|
B|-----13-15--------13-|----13-15--------13-|----13-----------13-|----13-15------12-----|
G|--14-----------14----|-14-----------14----|-14-----------14----|-14---------12----14--|
D|---------------------|--------------------|--------------------|----------------------|
A|---------------------|--------------------|--------------------|----------------------|
D|---------------------|--------------------|--------------------|----------------------|

So...this is how I think the song goes...
If you have any idea of how to improve this, let me know
I really hope I've helped you
And thank you, for you attention c:
Tap to rate this tab
 
# A B C D E F G H I J K L M N O P Q R S T U V W X Y Z