Song name
# A B C D E F G H I J K L M N O P Q R S T U V W X Y Z

A Perfect Circle - A Stranger tab

E|--------3-----------3---3----------3----------3---------------|
A|----------3-----------3---3----------3----------3-------------|
d|----0-----------0--------------0----------0-------------------|
G|------3-----------3--------------3----------3-----------------|
b|-----------------------------1----------1---------3-----------|
E|-3------------3-----------------------------------------------|

E|--------3---3--------3---3----------3----------3---3----------|
A|----------3------------3---3----------3----------3---3--------|
d|----0-----------0--------------0----------0-------------------|
G|------3-----------3--------------3----------3-----------------|
b|-----------------------------1----------1---------------------|
E|-3------------3-----------------------------------------------|
Tap to rate this tab
 
# A B C D E F G H I J K L M N O P Q R S T U V W X Y Z