Song name
# A B C D E F G H I J K L M N O P Q R S T U V W X Y Z

A Perfect Circle - Anihilation tab

Annihilation - A Perfect Circle

For guitar, it sounds better palm muted

3/4, the measures aren't right, so ignore them
e|--0---0---------|----------------|
B|--------3-1-----|--3-3-1-0-------|
G|2----------2----|-2--------------|	x2
D|----------------|----------------|
A|----------------|----------------|
D|----------------|----------------|

e|----------------|----------------|
B|----------------|----------------|
G|-2--2-4-2--2-4--|-0--0-5----2----|
D|----------------|----------------|
A|----------------|----------------|
D|----------------|----------------|

Repeat and repeat and repeat
Tap to rate this tab
# A B C D E F G H I J K L M N O P Q R S T U V W X Y Z