Guitaretab - guitar tabs
Song name
# A B C D E F G H I J K L M N O P Q R S T U V W X Y Z

A Perfect Murder - Wake Up And Die tab

		                 A PERFECT MURDER - WAKE UP AND DIE
              ---------------------------------------

Tabbed by: Domi166
Tuning: D G C F A D (LOW TI HIGH)

/ = Slide
~ = let it ring!


INTRO
-----

Intro Riff 1:
	Guitar I
|---------------------------------------------|------------------------------|
|---------------------------------------------|------------------------------|
|---------------------------------------------|------------------------------|
|---------------------------------------------|------------------------------|
|--4-4-4-4-4-4-4--------4----------4----------|------------------------------|
|--2-2-2-2-2-2-2--------2----------2----------|------------------------------|

	Guitar II
|---------------------------------------------|------------------------------|
|---------------------------------------------|------------------------------|
|---------------------------------------------|------------------------------|
|---------------------------------------------|------------------------------|
|--4-4-4-4-4-4-4--------4----------4----------|------------------------------|
|--2-2-2-2-2-2-2--------2----------2----------|-2--2/1--1/0--0/1--1/2--------|

Intro Riff 2:
	Guitar I+II
|---------------------------------------------|------------------------------|
|---------------------------------------------|------------------------------|
|---------------------------------------------|------------------------------|
|---------------------------------------------|------------------------------|
|--4-4-4-4-4-4-4--------4----------4----------|-5~~--------------------------|
|--2-2-2-2-2-2-2--------2----------2----------|-3~~--------------------------|


VERSE
-----

Verse Riff 1:
	Guitar I+II
|---------------------------------|
|---------------------------------|
|---------------------------------|
|---------------------------------|
|-2------2---2---------2-------3--|
|-0--0-0-0-0-0-0-0-000-0---000-1--|


Chorus
------

Chorus Riff 1:
	Guitar I+II
|--------------------------|--------------------------|
|--------------------------|--------------------------|
|--------------------------|--------------------------|
|--------------------------|--------------------------|
|-------5-7-5--------5-7-5-|--------------------------|
|-666-6--------555-5-------|-100-3-0-0-0--100-3-0-0-0-|

Chorus Riff 2:
	Guitar I+II
|--------------------------|--------------------------------|
|--------------------------|--------------------------------|
|--------------------------|--------------------------------|
|--------------------------|--------------------------------|
|-------5-7-5--------5-7-5-|----------2--2--2------2------3-|
|-666-6--------555-5-------|-0000000--0--0--0--0-0-0--0-0-1-|
[ Tab from: http://www.guitaretab.com/a/a-perfect-murder/186353.html ]
play chorus 3 just before the bridge
Chorus Riff 3:
	Guitar I+II	                                | this part	(Two Times) |
|--------------------------|--------------------------------|--------------------------------|
|--------------------------|--------------------------------|--------------------------------|
|--------------------------|--------------------------------|--------------------------------|
|--------------------------|--------------------------------|--------------------------------|
|-------5-7-5--------5-7-5-|----------2--2--2------2------2-|----------2--2--2------2------3-|
|-666-6--------555-5-------|-0000000--0--0--0--0-0-0--0-0-0-|-0000000--0--0--0--0-0-0--0-0-1-|


Bridge
------

Bridge Riff 1:
	Guitar I+I
|--------------------------------|
|--------------------------------|
|--------------------------------|
|-9-----8-----5-----5------------|
|-7-----6-----3-----2------------|
|-7-----6-----3-----2----3-2-0-2-|

Build Up Riff 1:
later Guitar II play this, Guitar I play "Bridge Riff 1":
|------------------------------------------------------|
|------------------------------------------------------|
|-9-9-9-9-9-9-/111111111111/121212121212/111111--------|
|-x-x-x-x-x-x--x-x-x-x-x-x--x-x-x-x-x-x--x-x-x---------|
|-7-7-7-7-7-7-/9-9-9-9-9-9-/101010101010/9-9-9---------|
|----------------------------------------------3-2-0-2-|

Build Up Riff 2:
later Guitar II play this, Guitar I play "Bridge Riff 1":
|------------------------------------------------------|
|------------------------------------------------------|
|-9-9-9-9-9-9-/8-8-8-8-8-8-/5-5-5-5-5-5-/4-4-4---------|
|-x-x-x-x-x-x--x-x-x-x-x-x--x-x-x-x-x-x--x-x-x---------|
|-7-7-7-7-7-7-/6-6-6-6-6-6-/3-3-3-3-3-3-/2-2-2---------|
|----------------------------------------------3-2-0-2-|


Break
-----

Break Riff 1:
	Guitar I
|-------------------------|
|-------------------------|
|-------------------------|
|-------------------------|
|-2-2-2-------------------|
|-0-0-0-------------------|

	Guitar II
|-------------------------|
|-------------------------|
|-------------------------|
|-------------------------|
|-2-2-2--/7-7-7--8-8--5-5-|
|-0-0-0-------------------|

Break Riff 2:
	Guitar I
|-------------------------|
|-------------------------|
|-------------------------|
|-------------------------|
|-2-2-2-------------------|
|-0-0-0-------------------|

	Guitar II
|----------------------------|
|----------------------------|
|----------------------------|
|----------------10--7---4-4-|
|-2-2-2--/7-7-7--8-/-5-/-2-2-|
|-0-0-0----------8-/-5-/-2-2-|

Play Break Riff 1 One Time again!

Break Riff 3:
	Guitar I
|-------------------------|
|-------------------------|
|-------------------------|
|-------------------------|
|-2-2-2-2-2-2-2-2-2-2-2-2-|
|-0-0-0-0-0-0-0-0-0-0-0-0-|

	Guitar II
|----------------------------|
|----------------------------|
|----------------------------|
|----------------10--7---4-4-|
|-2-2-2--/7-7-7--8-/-5-/-2-2-|
|-0-0-0----------8-/-5-/-2-2-|

Break Riff 4:
	Guitar I
|-------------------------|
|-------------------------|
|-------------------------|
|-------------------------|
|-2-2-2--7-7-7--8-8--5-5--|
|-0-0-0--7-7-7--8-8--5-5--|

	Guitar II
|-------------------------|
|-------------------------|
|-------------------------|
|-------------------------|
|-2-2-2--/7-7-7--8-8--5-5-|
|-0-0-0-------------------|

Break Riff 5:
	Guitar I
|---------------------------|
|---------------------------|
|---------------------------|
|---------------------------|
|-2-2-2--7-7-7--8-/-5-/-2-2-|
|-0-0-0--7-7-7--8-/-5-/-2-2-|

	Guitar II
|----------------------------|
|----------------------------|
|----------------------------|
|----------------10--7---4-4-|
|-2-2-2--/7-7-7--8-/-5-/-2-2-|
|-0-0-0----------8-/-5-/-2-2-|

After that play chorus again!




Related for Wake Up And Die tab