Song name
# A B C D E F G H I J K L M N O P Q R S T U V W X Y Z

A Perfect Murder - Time Changes Nothing tab

Nearly same tab as Domi166, except drop D, much easier to play this way. It sounds 99% 
when I play it.

clean
|----------------|-----------------------|
|----------------|-----------------------|
|----------------|-----------------------|
|-----2-----2----|------7------5---5-----|
|---0-----0------|----5------5-----------|
|-0-----3-----2--|--0------0------0------|

  clean riff with flourish
|--------------------------|-----------------------|
|--------------------------|-----------------------|
|--------------------------|-----------------7-----|
|-----2-----2--------------|-----7-----5--5---7----|
|---0-----0----------------|---5-----5---------5---|
|-0-----3-----2--3-3-2-3-2-|-0-----0-----0------7--|

  1st distortion riff
|------------------------------------|
|------------------------------------|
|------------------------------------|
|------------------------------------|
|------------------------------------|
|--2---0-2-3---5---5-3-2--0-3-2------|

  clean, goes into distortion
|----------------|-----------------------|
|----------------|-----------------------|
|----------------|-----------------------|
|-----2-----2----|-----------------------|
|---0-----0------|-----------------------|
|-0-----3-----2--|--/8-8-7--7h8h7--------|

|----------------|-----------------------|
|----------------|-----------------------|
|----------------|-----------------------|
|-----2-----2----|-----------------------|
|---0-----0------|-----------------------|
|-0-----3-----2--|--/8-8-7--7-8-7-10-7---|

hard distortion
|------------------------------------|
|------------------------------------|
|------------------------------------|
|--------0-1-0-----------------------|
|-------------------------0-1-0------|
|-5-0-3--------3----0-3-5-------3----|


|--------------------------------------|
|--------------------------------------|
|--------------------------------------|
|---------1-0------0-1-3---------------|
|-------------3--3--------1---0--------|
|-5-0-3-5------------------------------|

riff after distortion
|--------------------|
|--------------------|
|--------------------|
|-2-2-2--------------|
|-0-0-0----2--3-3-3--|
|----------0--1-1-1--|

|------------------------------|
|------------------------------|
|------------------------------|
|-2-2-2------------------------|
|-0-0-0------3-3-3-------------|
|------------1-1-1--3-3-3-3-3-3|
Tap to rate this tab
 
# A B C D E F G H I J K L M N O P Q R S T U V W X Y Z