Song name
# A B C D E F G H I J K L M N O P Q R S T U V W X Y Z

A Place To Bury Strangers - Dont Think Lover tab

Artist: A Place To Bury Strangers
Title: Don't Think Lover
Album: A Place To Bury Strangers

   F#5                                             B5
e|---------------|---------------|---------------|---------------|
B|---------------|---------------|---------------|---------------|
G|---------------|---------------|---------------|-4---4---4-----| 3x
D|-4---4---4-----|-4---4---4-----|-4---4---4-----|-4---4---4-----|
A|-4---4---4-----|-4---4---4-----|-4---4---4-----|-2---2---2-----|
E|-2---2---2-----|-2---2---2-----|-2---2---2-----|---------------|

C#m C#m B B C#m C#m A A 6x 
last time hit A once and let ring for the whole 2 bars.

break.

Then play again 
   F#5                                             B5
e|---------------|---------------|---------------|---------------|
B|---------------|---------------|---------------|---------------|
G|---------------|---------------|---------------|-4---4---4-----| 3x
D|-4---4---4-----|-4---4---4-----|-4---4---4-----|-4---4---4-----|
A|-4---4---4-----|-4---4---4-----|-4---4---4-----|-2---2---2-----|
E|-2---2---2-----|-2---2---2-----|-2---2---2-----|---------------|

C#m C#m B B C#m C#m A A 6x 
last time hit A once and let ring for 2 bars.

Break again.

and play this one more time.

   F#5                                             B5
e|---------------|---------------|---------------|---------------|
B|---------------|---------------|---------------|---------------|
G|---------------|---------------|---------------|-4---4---4-----| 3x
D|-4---4---4-----|-4---4---4-----|-4---4---4-----|-4---4---4-----|
A|-4---4---4-----|-4---4---4-----|-4---4---4-----|-2---2---2-----|
E|-2---2---2-----|-2---2---2-----|-2---2---2-----|---------------|

check out the song for the correct strumming pattern. 
Tap to rate this tab
# A B C D E F G H I J K L M N O P Q R S T U V W X Y Z