A Place To Bury Strangers - It Is Nothing tab

-------------------------------------------------------------------------------
			     It Is Nothing - A Place To Bury Strangers
-------------------------------------------------------------------------------
Tabbed by: Stef
Email: ...

Tuning: Standard


Use a lot of distortion/fuzz and reverb to make it sound close to the record.


Intro/Chorus

e|------------------------------------------------------------------------|
B|-/9--9-9-9-9\-/12--12-12-12-12\-/14--14-14-14-14\-/16--16-16-16-16\-----|
G|-/9--9-9-9-9\-/12--12-12-12-12\-/14--14-14-14-14\-/16--16-16-16-16\-----|
D|-/9--9-9-9-9\-/12--12-12-12-12\-/14--14-14-14-14\-/16--16-16-16-16\-----|
A|-/7--7-7-7-7\-/10--10-10-10-10\-/12--12-12-12-12\-/14--14-14-14-14\-----|
E|------------------------------------------------------------------------|

Verse

e|------------------------------------------------------------------------|
B|-9--9--9-9\7/9--9--9-9\7/9--9--9-9\7-7-7/12-12-12-----------------------|
G|-9--9--9-9\7/9--9--9-9\7/9--9--9-9\7-7-7/12-12-12-----------------------|
D|-9--9--9-9\7/9--9--9-9\7/9--9--9-9\7-7-7/12-12-12-----------------------|
A|-7--7--7-7\5/7--7--7-7\5/7--7--7-7\5-5-5/10-10-10-----------------------|
E|------------------------------------------------------------------------|

Outro

Not tabbed yet. Post it in the comments if you have an idea.




************************************

| /   slide up
| \   slide down
| h   hammer-on
| p   pull-off
| ~   vibrato
| +   harmonic
| x   Mute note
| b   Bend
| pb  Pre-bend
| br  Bend release
| pbr Pre-bend release
| brb Bend release bend

************************************
Tap to rate this tab
 
# A B C D E F G H I J K L M N O P Q R S T U V W X Y Z