Song name
# A B C D E F G H I J K L M N O P Q R S T U V W X Y Z

A Plastic Rose - Kids Dont Behave Like This chords

Highlighted       Show chord diagrams
A Plastic Rose - Kid's Don't Behave Like This [basic acoustic] 
Standard Tuning. 
No Capo.

Please note, this is my own acoustic rendition of the song. 
This shouldn't be considered the way APR play the song, however,
that being said, this tablature is and can be played in the timing
and along with the mp3 track and sounds fairly ok!  

Tabbed By - Darren Mallett, Also authored the Indian Sheets Tab. 

Twitter: @Darren_Mallett
#APRmy

______________________________________________________
  
  I'll just refer to this as D*
e|--------------------------------------|
B|-------3---------3--------3--------3--|
G|---2---------2--------2--------2------|
D|-0---0-----0---0----0---0----0---0----|
A|--------------------------------------|
E|--------------------------------------|

  This part is gonna be F*
e|--------------------------------------|
B|-------1---------1--------1--------1--|
G|---2---------2--------2--------2------|
D|-3---3-----3---3----3---3----3---3----|
A|--------------------------------------|
E|--------------------------------------|

  This part is gonna be C*
e|--------------------------------------|
B|-------1---------1--------1--------1--|
G|---0---------0--------0--------0------|
D|-2---2-----2---2----2---2----2---2----|
A|--------------------------------------|
E|--------------------------------------|

Where you see the * the above finger picking is played. ^
Otherwise, play the chord. You can Palm mute the chords if you please.

D*                          F*
I'd run 'til my shoes wore down, 
                   C*
Just to have you around 
                            D*
'coz you laugh when I'm angry
                  
                    F*
I'm constantly thinkin'
                      C*
Of ways we could sink in
                   D
Into eachother's arms!

           F         C                 D
What am I gonna do coz it's all about you? 
           F          C                 D
What am I gonna say, coz its all about you.

D
Kids don't behave like this
F           C          D
Kids don't behave like this. 

[continue D]
Kids don't behave like this
F           C           D
Kids don't behave like this

D*                          F*
I'd run 'til my shoes wore down, 
                   C*
Just to have you around 
                            D*
'coz you laugh when I'm angry
                  
                    F*
I'm constantly thinkin'
                      C*
Of ways we could sink in
                   D
Into eachother's arms!

           F         C                 D
What am I gonna do coz it's all about you? 
           F          C                 D
What am I gonna say, coz its all about you.

D
Kids don't behave like this
F           C          D
Kids don't behave like this. 

[continue D]
Kids don't behave like this
F           C           D
Kids don't behave like this

D*   F*   C* D*   |
Aw oh oh oh oh    mute the the full chords here for sure
D    F    C  D    if you didn't mute the chorus  
aw oh oh oh oh    |

D
Kids don't behave like this
F           C          D
Kids don't behave like this. 


Kids don't behave like this
F           C          D
Kids don't behave like this.                   


That's pretty much it! 
Tap to rate this tab
# A B C D E F G H I J K L M N O P Q R S T U V W X Y Z