Song name
# A B C D E F G H I J K L M N O P Q R S T U V W X Y Z

A Plastic Rose - Kids Dont Behave Like This tab

 A PLASTIC ROSE - KIDS DON'T BEHAVE LIKE THIS
 ALBUM: CAMERA.SHUTTER.LIFE available here - 
https://itunes.apple.com/gb/album/camera.shutter.life/id555121693

TABBED BY - Darren Mallett
http://www.twitter.com/Darren_Mallett


 - Made massive mistakes in the other version tabbing drunk, so I came back to correct them.
 - A lot of work went into making this as simplified as I could make it. I'm pretty sure this
   is accurate now, at least for a decent acoustic rendition.
 - I've tabbed the whole thing by ear so if anyone uses this to make a corrected version
   I'd appreciate the accreditation.

This is very easy to play, sections 1 and 2 make up the verse of the song
and should be repeated together with flow. Listen to the track whilst playing
to catch the rhythm.

     |Section 1|
e|--------------------------------------|
B|---------3--------------3-------------|
G|---2---2---2------2---2---2-----------| This part is played 2/3 times
D|-0---0----------0---0-----------------| Before the vocals kick in.
A|--------------------------------------|
E|--------------------------------------|

     |Section 2|
e|--------------------------------------|
B|-----3---------3-------------3--------|
G|--0-0-0-0---0-0-0-0----2---2---2------| The ending of this transition is
D|---0---0-----0---0---0---0------------| going to lead into a repetition of
A|-3---------2--------------------------| the first section above. Both parts
E|--------------------------------------| are repetitive of the verses.

 The PreChorus & Chorus is the same pattern but almost in chord form. So as follows;

     |PRECHORUS| (What am I gonna do? 'Cuz It's all about you. etc)
e|-----------------------------------------------------|
B|-3333333333333333333333333333333333333333333333333333| I haven't sat to get the amount of
G|-2222222222222222220000000000000000000000000000000000| Notes until the transitions perfect
D|-0000000000000000000000000000000000000000000000000000| but listening to the track whilst you
A|-------------------3333333333333333322222222222222222| play you can perfectly hear them.
E|-----------------------------------------------------|

e|-----------------------------------------------------|
B|33333333333333333------------------------------------| I'd recommend palm muting these during
G|22222222222222222------------------------------------| the prechorus as it allows the chorus
D|00000000000000000------------------------------------| to come across louder.
A|-----------------------------------------------------|
E|-----------------------------------------------------|

The chorus is in 2 halves. Both vocals are the same (Kid's Don't Behave Like This!)
The first half will be a single chord chorus introduction leading to the
same chords you just learnt for the beginning of the prechorus.
   Kids   Behave     Kids Behave
   Don't Like|this  Don't like this
e|---------------------------------------------------------------|
B|--3------3---------3-----3---------3333333333333333333333------|
G|--0------0---------0-----0---------2222222222222222222222------|
D|--0------0---------0-----0---------0000000000000000000000------|
A|--3------2---------3-----2-------------------------------------|

And the second part also Kids Don't Behave Like This! is the same only no single chords!
Again, the timing isn't perfect here.

e|---------------------------------------------------------------|
B|--3333333333333333333333333333333333333333333333333333333333333|
G|--0000000000000000000000000000000000000000000000000002222222222|
D|--0000000000000000000000000000000000000000000000000000000000000|
A|--333333333333332222222222222333333333332222222222222----------|
E|---------------------------------------------------------------|

After both verses there's a vocal harmony. This is just the same as the second half of 
the chorus and it needs to be palm muted because the OUTRO-CHORUS comes next and should 
be kept
louder.

     *PALM MUTE*
  |oh ahhhhhhhhhhhhhh etc|
e|---------------------------------------------------------------|
B|--3333333333333333333333333333333333333333333333333333333333333|
G|--0000000000000000000000000000000000000000000000000002222222222|
D|--0000000000000000000000000000000000000000000000000000000000000|
A|--333333333333332222222222222333333333332222222222222----------|
E|---------------------------------------------------------------|
     |OUTRO-CHORUS|
  | KIDS DON'T BEHAVE LIKE THIS! KIDS DON'T BEHAVE LIKE THIS!|
e|---------------------------------------------------------------|
B|--3333333333333333333333333333333333333333333333333333333333333|
G|--0000000000000000000000000000000000000000000000000002222222222| This is repeated until it
D|--0000000000000000000000000000000000000000000000000000000000000| dies out.
A|--333333333333332222222222222333333333332222222222222----------|
E|---------------------------------------------------------------|


With Lyrical guidance to what you've just learnt

|FIGURES|
     | 1 |
 e|----------|
 B|-----3----|
 G|--2-2-2---|
 D|-0-0------|
 A|----------|
 E|----------|
     | 2 |          | 3 |
 e|----------|  e|----------|
 B|-----3----|  B|-----3----|
 G|--0-0-0-0-|  G|--0-0-0-0-|
 D|---0---0--|  D|---0---0--|
 A|-3--------|  A|-2--------|
 E|----------|  E|----------|

    | 4 |     | 5 |     | 6 |
  e|-----|  e|-----|  e|-----|
  B|--3--|  B|--3--|  B|--3--|
  G|--2--|  G|--0--|  G|--0--|
  D|--0--|  D|--0--|  D|--0--|
  A|-----|  A|--3--|  A|--2--|
  E|-----|  E|-----|  E|-----|


 1                          2
I'd run 'til my shoes wore down,
                    3
Just to have you around
                          1
'coz you laugh when I'm angry

                  2
I'm constantly thinkin'
                      3
Of ways we could sink in
                  1
Into eachother's arms!

                5 6     5 6            4
What am I gonna do coz it's all about you?
                5 6     5 6            4
What am I gonna say, coz its all about you.

 5           6
Kids don't behave like this
 5           6            4
Kids don't behave like this.

 5           6
Kids don't behave like this
 5           6             1
Kids don't behave like this

 1                           2
I'd run 'til my shoes wore down,
                     3
Just to have you around
                           1
'coz you laugh when I'm angry

 1                2
I'm constantly thinkin'
                     3
Of ways we could sink in
                  4
Into eachother's arms!

                5   6      5    6      4
What am I gonna do coz it's all about you?
                5   6      5    6      4
What am I gonna say, coz its all about you.

 5           6
Kids don't behave like this
 5           6          4
Kids don't behave like this.

 5           6
Kids don't behave like this
 5           6          4
Kids don't behave like this

 5  6  5   6
Aw oh oh oh oh
 5  6  5   6    4
aw oh oh oh oh

 5           6
Kids don't behave like this
 5           6           4
Kids don't behave like this.

 5           6
Kids don't behave like this
 5           6           4
Kids don't behave like this.


end on a slowed 5 6 5 6 4
Tap to rate this tab
 
# A B C D E F G H I J K L M N O P Q R S T U V W X Y Z