Song name
# A B C D E F G H I J K L M N O P Q R S T U V W X Y Z

A R Rahman - Jo Bhi Mai tab

Em- 022000
G- 320003
D- xx0232
Dsus4- x00233
Dsus2- x00230
A- 003330
Am- x02210


Intro:

...Em............Em............Em.............Em
e--------0--------------------------------------|
B-------------3---------------------------------|
G----------0------------2-----------------------|
D-----2----------4h5-------4/2---0---2----------|
A-----------------------------------------------|
E--0-------------------------------------0------|

...Em...........Em..............Em...........Em
e--------0--------------------------------------|
B-------------3---------------------------------|
G----------0------------2---4-------------------|
D-----2----------4h5------------4---------------|
A-----------------------------------------------|
E--0--------------------------------0-----------|


A little variation...
you can play this variation in intro too...

.......................Em
e-----------------------------------------------|
B-----------------------------------------------|
G-----------------------------------------------|
D--2/0-----0------------------------------------|
A-------2--------0h2----------------------------|
E-------------3--------0------------------------|


This is from where the vocals start:

Chorus:

Em
Jo bhi main, kehna chahoon
G.......A.......Em
Barbaad karein, alfaz mere, alfaz mere
Em
Oo yeah yeah oo ..

Verse:
G...........................D.........Dsus4.....Dsus2
Kabhi mujhe lagey ke jaise, saara hi yeh jahaan hai jaage
Am............................Dsus4..........D
Jo hai aur nahin bhi hai yeh, fiza ghata hawa bahaarein
G..........D
Tujhe kare ishaare ya
Am...........D.....Dsus4...D..Dsus2..D
Kaise kahun, kahani main inki

Repeat chords:-
Maine ye bhi soocha hai aksar, tu bhi me bhi sabhi hai sheeshe
Khud hi ko hum sabhi me dekhe, nahi hu me hu me to phir bhi
sahi galat tumhara me
mujhe pana pana hai tumko


Chorus:
Em
Jo bhi main, kehna chahoon
G.......A.......Em
Barbaad karein, alfaz mere, alfaz mere
Em
Oo yeah yeah oo ..

thankyou
-Rhyshabh
Tap to rate this tab
# A B C D E F G H I J K L M N O P Q R S T U V W X Y Z