Guitaretab - guitar tabs
Song name
# A B C D E F G H I J K L M N O P Q R S T U V W X Y Z

A Rocket To The Moon - Oh Dakota tab

Oh Dakota  A Rocket To The Moon

Intro:

|--x-----x-----x-----x-----|
|--x-----1-----x-----1-----|
|--2-----2-----x-----2-----|     PLAY ALL TWICE
|--3-----3-----5-----2-----|
|--3-----3-----5-----x-----|
|--1-----x-----3-----x-----|
   F      C      G      Am

Verse 1:

|--x-----x-----x-----x-----x-----x-----x-----x-----x-----x-----x-----x-----x-----|
|--1-----1-----1-----1-----x-----x-----1-----x-----x-----1-----1-----1-----1-----|
|--2-----2-----2-----2-----2-----x-----2-----2-----x-----2-----2-----2-----2-----|
|--3-----2-----3-----2-----3-----5-----2-----3-----5-----3-----3-----2-----3-----|
|--3-----x-----3-----x-----3-----5-----x-----3-----5-----3-----3-----x-----3-----|
|--x-----x-----x-----x-----1-----3-----x-----1-----3-----x-----x-----x-----x-----|

   C   Am     C    Am     F      G     Am    F      G      C      C     Am    C   

x-----x-----x-----x--|
1-----1-----1-----x--|
2-----2-----2-----5--|
2-----2-----2-----5--|
x-----x-----x-----3--|
x-----x-----x-----x--|
 Am    C     Am     G


Chorus:
[ Tab from: http://www.guitaretab.com/a/a-rocket-to-the-moon/178573.html ]
|--x-----x-----x-----x-----x-----x-----x-----x-----x-----x-----x-----x|
|--x-----1-----x-----1-----x-----1-----x-----x-----x-----1-----x-----x|
|--2-----2-----x-----2-----2-----2-----x-----x-----x-----2-----x-----2|
|--3-----3-----5-----2-----3-----3-----5-----6-----5-----2-----5-----3|
|--3-----3-----5-----x-----3-----3-----5-----6-----5-----x-----5-----3|
|--1-----x-----3-----x-----1-----x-----3-----4-----3-----x-----3-----1|
   F      C      G     Am    F      C      G     G#     G    Am    G      F     


Verse 2:

|--x-----x-----x-----x-----x-----x-----x-----x--|
|--1-----1-----1-----1-----x-----x-----x-----x--|
|--2-----2-----2-----2-----2-----x-----2-----x--|
|--3-----2-----3-----2-----3-----5-----3-----5--|
|--3-----x-----3-----x-----3-----5-----3-----5--|
|--x-----x-----x-----x-----1-----3-----1-----3--|

   C    Am     C     Am    F      G     F      G


Chorus:

|--x-----x-----x-----x-----x-----x-----x-----x-----x-----x-----x-----x|
|--x-----1-----x-----1-----x-----1-----x-----x-----x-----1-----x-----x|
|--2-----2-----x-----2-----2-----2-----x-----x-----x-----2-----x-----2|
|--3-----3-----5-----2-----3-----3-----5-----6-----5-----2-----5-----3|
|--3-----3-----5-----x-----3-----3-----5-----6-----5-----x-----5-----3|
|--1-----x-----3-----x-----1-----x-----3-----4-----3-----x-----3-----1|
   F      C      G     Am    F      C      G     G#     G    Am    G      F     






Bridge:

|--x-----x-----x-----x--|
|--1-----x-----x-----x--|
|--2-----2-----x-----4--|
|--2-----3-----x-----4--|
|--x-----3-----10----2--|
|--x-----1-----8-----x--|

  Am   F     C5    B/Cm
Related for Oh Dakota tab