Song name
# A B C D E F G H I J K L M N O P Q R S T U V W X Y Z

A Rocket To The Moon - On A Lonely Night tab

So I have been wanting to learn how to play this song since it even came out and there
been no tabs whatsoever so I decided to tab this. Tabbed it out by ear after Nick and
finally played it acoustically live. Hope you like it. It's not perfect, but hey, it's 
close to what Justin plays. So yeah, enjoy!

And by the way, if you're having some trouble understanding the strumming patterns and
chords to play, watch this video: http://www.youtube.com/watch?v=tIpgEWQT7GY. It's not
but you should get the gist of where things go after it.)

Intro:

(This part isn't actually needed because it's not in the song, but it's cool, hehe)
e|----------------------------------------0--------------------------|
B|-----3-------3-------3-------3--------2---2---2-------2------------|
G|---0---0---0---0---0---0---0--------0-------3-------3---3-2/4/2-0--|
D|-5-------4-------2-------0--------2---------------0----------------|
A|--------------------------------3----------------------------------|
E|-------------------------------------------------------------------|


"I was sixteen, met you out in Ohio.."
e|-----------------------------------------0-----------------------|
B|-----3-------3--------3-------3--------2---2---2--------3--------|
G|---0---0----0---0---0---0---0--------0-------3------2h4---4-2-0--|
D|-/5-------4-------2-------0--------2--------------0--------------|
A|--------------------------------3--------------------------------|
E|-----------------------------------------------------------------|


"You were fifteen, living life by the mile.."
e|---------------------------------------------------------0-0-0----|
B|-----3-------3-------3--------3-------1---------3----3~--3-3-3----|
G|---0---0---0---0---0---0----0-----------0---------0--2~--2-2-0----|
D|-/5-------4-------2-------0---------2---------2----------0-0-0----|
A|----------------------------------3---------3------------0-0-0----|
E|---------------------------------------------------------0-0-0----|

                    "..but you never need to..."
e|-3--3--3--3--3--3---3-x-x-3-----|
B|-3--3--3--3--3--3---3-3-3-3-----|
G|-0--0--0--2--0--2---0-0-0-2-----|
D|-0--2--2--0--3--0---2-4-2-0-----|
A|-2--0--2--0--2--0---2-2-3-0-----|
E|-3--2--0--0--0--0---0-3-x-0-----|

Chorus:

"On a lonely night, you will see.."
e|-3--3--3--3--3--3--3--3--3--3--3-----|
B|-3--3--3--3--3--3--3--3--3--3--3-----|
G|-0--0--0--2--0--0--2--0--0--0--2-----|
D|-3--0--2--0--3--0--0--3--0--2--0-----|
A|-2--3--2--0--2--3--0--2--3--2--0-----|
E|-0--2--0--0--0--2--0--0--2--0--0-----|


".. is every night is lonely without you, every night is lonely without you here."
e|-3-3-3-3--3-3-3~-----|
B|-3-3-3-3--3-3-3~-----|
G|-0-0-0-0--0-0-2~-----|
D|-0-0-2-0--0-2-0~-----|
A|-3-2-0-2--3-0-0~-----|
E|-x-x-x-x--x-x-x~-----|


Verse:

e|-3--3--3--3--3--|
B|-3--3--3--3--3--|
G|-0--0--0--2--0--|
D|-0--2--2--0--3--|
A|-2--0--2--0--2--|
E|-3--2--0--0--0--| x2

e|-3--3--3--3--3--3---3--x--x--3--|
B|-3--3--3--3--3--3---3--3--3--3--|
G|-0--0--0--2--0--2---0--0--0--0--|
D|-0--2--2--0--3--0---2--4--2--0--|
A|-2--0--2--0--2--0---2--2--3--2--|
E|-3--2--0--0--0--0---0--3--x--0--|

"If I listen to our song, I'll be up all night.."
e|-3--3--3-|
B|-3--3--3-|
G|-0--0--2-|
D|-3--0--0-|
A|-2--3--0-|
E|-0--2--0-|


Chorus:

e|-3--3--3--3--3--3--3--3--3--3--3--|
B|-3--3--3--3--3--3--3--3--3--3--3--|
G|-0--0--0--2--0--0--2--0--0--0--2--|
D|-3--0--2--0--3--0--0--3--0--2--0--|
A|-2--3--2--0--2--3--0--2--3--2--0--|
E|-0--2--0--0--0--2--0--0--2--0--0--|


e|-3-3-3-3--3-3-3~--|
B|-3-3-3-3--3-3-3~--|
G|-0-0-0-0--0-0-2~--|
D|-0-0-2-0--0-2-0~--|
A|-3-2-0-2--3-0-0~--|
E|-x-x-x-x--x-x-x~--|

Solo:
(I couldn't tab out the solo itself, so here's an alternative.)

e|-3--3--3--3--3---------------3--3--3-------------------|
B|-3--3--3--3--3---------------3--3--3----------3--------|
G|-0--0--0--2--0--2-2-0-4-2-0--0--0--0--2-2-2-4---4-2-0--|
D|-0--2--2--0--3---------------0--2--2-------------------|
A|-2--0--2--0--2---------------0--2--3-------------------|
E|-3--2--0--0--0---------------3--0--0-------------------|

Bridge:

e|-0--0--3-3-3---0--0--3-3-3---0--3--3-3-3--3-3-3--|
B|-2--3--3-3-3---2--3--3-3-3---1--3--3-3-3--3-3-3--|
G|-2--0--0-0-0---2--0--0-0-0---2--2--0-0-0--0-0-2--|
D|-1--4--0-2-2---1--4--0-2-2---3--0--0-0-0--0-0-0--|
A|-0--5--2-0-2---0--5--2-0-2---3--0--3-2-0--3-2-0--|
E|-0--0--3-2-x---0--0--3-2-x---0--0--x-x-x--x-x-x--|

Chorus (Picking):
(To play it like the song, you can stop picking at the 's' and just the strum the rest
the chords below. It doesn't really matter.)

                                     s
e|----3--------3---------3--------3--------3--------3-----3--|
B|----3--------3---------3--------3--------3--------3-----3--|
G|------0--------0---------0----2---2--------0--------0---2--|
D|---3-----------------2------0----------3----------------0--|
A|-2---------3-------2-----------------2----------3-------0--|
E|---------2------------------------------------2---------x--|


e|-3--3--3--3--|
B|-3--3--3--3--|
G|-0--0--0--2--|
D|-3--0--2--0--|
A|-2--3--2--0--|
E|-0--2--0--0--|

                   Break..  "And every guy would be lonely.."
e|-3-3-3-3--3-3-3--3-3-3-3--3--3---3~-----|
B|-3-3-3-3--3-3-3--3-3-3-3--3--3---3~-----|
G|-0-0-0-0--0-0-2--0-0-2-0--0--2---0~-----|
D|-0-0-2-0--0-0-0--0-0-0-2--2--0---3h4~---|
A|-3-2-0-2--3-2-0--3-2-0-0--2--0---2~-----|
E|-x-x-x-x--x-x-x--x-x-x-x--x--x---0~-----|
Tap to rate this tab
 
# A B C D E F G H I J K L M N O P Q R S T U V W X Y Z