Song name
# A B C D E F G H I J K L M N O P Q R S T U V W X Y Z

A Rocket To The Moon - Baby Were Invincible tab

intro/chorus:

E|----14-11---------|
B|---------14----12-|
G|--11--------------|
D|------------------|
A|------------------|
E|------------------|

E|----14-11------11-|
B|---------14-------|
G|--11--------------|
D|------------------|
A|------------------|
E|------------------|

E|----14-11---------|
B|---------14----12-|
G|--11--------------|
D|------------------|
A|------------------|
E|------------------|

E|--12-11-----------|
B|--------14-14-12--|
G|------------------|
D|------------------|
A|------------------|
E|------------------|

this is the bridge part...

and by bridge, i mean the part that goes, "will you just hold me tight and never let me 
go? i know this whole thing's wrong but baby we're invincible.." that repeats..

here it goes... btw, this is just the lead.. because i dont hear any rhythm guitar.. xD

E|--------11---------|--------11-14-12-11---|
B|------12--14-12-11-|------12-----------14-|
G|-------------------|----------------------|
D|----13-------------|----13----------------|
A|--14---------------|--14------------------|
E|-------------------|----------------------|

just do this over and over until chorus :D

outro:

E|------14----|
B|--------12--|
G|------------|
D|----13------| (x4)
A|--14--------|
E|------------|

hope you like it :D
for comments/suggestions, pm me at jack_jackington1212@yahoo.com.ph OR 
i_am_not_james@yahoo.com or drop by my UG account..

rock on.. ARTTM.. \m/
Tap to rate this tab
# A B C D E F G H I J K L M N O P Q R S T U V W X Y Z