Song name
# A B C D E F G H I J K L M N O P Q R S T U V W X Y Z

A Rocket To The Moon - Like We Used To chords

Highlighted       Show chord diagrams
Like We Used To- A Rocket to The Moon

Intro
e|----0h2----2---0----2-------0--0h2-0-----0------3p2-0----0-------------------|
B|--------3--------3--------3----3---3--3----3----------3----3~-2/3------------|
G|----------2--------2-----------2---2----2----2----------2--------------------|
D|----0----------0-------0h2-----0---0--0----0----------0----0~----------------|
A|-----------------------------------------------------------------------------|
E|-----------------------------------------------------------------------------|

Verse 1
E 					Asus
I could feel her breath as shes sleeping next to me 
C#m    B                  Asus
Sharing pillows and cold feet 
E			       Asus
She can feel my heart; fell asleep to its beat 
C#m    B		   Asus
Under blankets and warm sheets 
Asus              E                    B
If only I could be in that bed again
F#m 		  E		 B 
If only it were me instead of him 


Chorus 1
E

Does he watch your favorite movies? 

Asus
Does he hold you when you cry?
 
                        C#m				B
Does he let you tell him all your favorite parts?
Asus 

When youve seen it a million times
 
E
Does he sing to all your music? 
	    
F#m
While you dance to purple rain 
	
            C#m     B             Asus 
Does he do all these things? 
Like I used to? 



Instrumental
(E-Asus-C#m-B-Asus) x2



Verse 2
E 		Asus
14 months and 7 days ago, 
	          C#m                B                  Asus

Oh I know you know how we felt about that night 

E 		                        Asus
Just your skin against the window 
                   
                             C#m         B           Asus
But we took it slow and we both know 

Asus                 E                    B
It shoulda been me inside that car 

F#m 		       E		    B (5 down strums- let ring out)
It should have been me instead of him in the dark 



Chorus 1
E

Does he watch your favorite movies?
 
Asus
Does he hold you when you cry?
 
C#m				B
Does he let you tell him all your favorite parts?
Asus 

When youve seen it a million times 

E
Does he sing to all your music? 
	  
  F#m
While you dance to purple rain 
	
                     C#m     B             Asus
Does he do all these things? 

Asus 
Like I used to? 

Bridge
Asus
I know that love happens (Im a sucker for that feeling) 
E			                        B
all the time, love (I always end up feeling cheated)

F#m
Youre on my mind, love (Oh darling, I know Im not needed)

 E				                                 B 
And that happens all the time, love (yeahhhhhhhh)


Chrous 2

E

Will he love you like I loved you?
 
Asus
Will he tell you everyday? 
		                C#m	        B

Will he make you feel like your invincible 
Asus

With every word hell say
 
E
Can you promise me that this was right? 

F#m 
Dont throw it all away 
	    
                  C#m  B  Asus
Can you do all these things? 
	 
	            C#m  B    Asus
Will you do all these things? 

Asus 
Like we used to 
 

Outro
same as the intro 
e|----0h2----2---0----2-------0--0h2-0-----0------3p2-0----0-------------------|
B|--------3--------3--------3----3---3--3----3----------3----3~-2/3------------|
G|----------2--------2-----------2---2----2----2----------2--------------------|
D|----0----------0-------0h2-----0---0--0----0----------0----0~----------------|
A|-----------------------------------------------------------------------------|
E|-----------------------------------------------------------------------------|
Tap to rate this tab
# A B C D E F G H I J K L M N O P Q R S T U V W X Y Z