Guitaretab - guitar tabs
Song name
# A B C D E F G H I J K L M N O P Q R S T U V W X Y Z

A Rocket To The Moon - On A Lonely Night tab

Title: On a lonely night
Band: A rocket to the moon
......tab based on [http://www.youtube.com/watch?v=8QYgmVcLJkI].......

Capo: 3rd fret (...it could be in 4th, i used 3rd because it sounds the same along the song..)
Intro: <<>>

verse:
(...we live ....) (...you said you ....)
|--3--3--3--3--3--3-----3--3--3--3--2--|
|--3--3--3--3--3--3-----3--3--3--3--3--|
|--0--2--0--2--0--2-----0--2--0--2--2--|
|--0--0--2--0--2--0-----2--0--2--0--0--|
|--2--0--2--0--3--0-----2--0--3--0--0--|
|--3--2--0--0--0--0-----0--0--0--0--0--|

chorus:
(on a lonely..see)    (you're ...)                   (..is every night......)
|--3--3--3--3-----------3--3-----------3--3--3--3---------3--3--3--2---|
|--3--3--3--3-----------3--3-----------3--3--3--3---------3--3--3--3---|
|--0--0--0--2-----------0--2-----------0--0--0--2---------0--2--0--2---|
|--2--0--2--0-----------2--0-----------2--0--2--0---------2--0--2--0---|
|--3--2--2--0-----------3--0-----------3--2--2--0---------2--0--3--0---|
|--0--3--0--0-----------0--0-----------0--3--0--0---------0--0--0--0---|

interlude:
|--3--3--3--3--3-----------|
|--3--3--3--3--3-----------|
|--0--2--0--2--0-----------|
|--0--0--2--0--2-----------|
|--2--0--2--0--3--3p0------|
|--3--2--0--0--0-----------|

verse2:
|--3--3--3--3--3--3-
|--3--3--3--3--3--3-
|--0--2--0--2--0--2-
|--0--0--2--0--2--0-
|--2--0--2--0--3--0-
|--3--2--0--0--0--0-
[ Tab from: http://www.guitaretab.com/a/a-rocket-to-the-moon/311546.html ]
(..i wish i......) (..if i listen to .....)
|-3--3--3--3--3--3--------------3--3--3--3-------------------3--3--3--2--|
|-3--3--3--3--3--3--------------3--3--3--3-------------------3--3--3--3--|
|-0--2--0--2--0--2--------------0--2--0--2-------------------0--0--2--2--|
|-0--0--2--0--2--0--------------2--0--2--0-------------------2--0--0--0--|
|-2--0--2--0--3--0--------------2--0--3--0-------------------3--2--0--0--|
|-3--2--0--0--0--0--------------0--0--0--0-------------------0--3--0--0--|

chorus:same...

adlib:(repeat 2x...)
|--3--3--3--3--3--3--|
|--3--3--3--3--3--3--|
|--0--2--0--2--0--2--|
|--0--0--2--0--2--0--|
|--2--0--2--0--3--0--|
|--3--2--0--0--0--0--|

bridge:
(it's been ..) (then lately..)  (..like when..)      (..and drove...)
|--0--2--------3--3--3------------0--2-----------------3--3--3--||?2?--
|--1--3--------3--3--3------------1--3-----------------3--3--3--||?2?--
|--2--2--------0--2--0------------2--2-----------------0--2--0--||?3?--
|--2--0--------0--0--2------------2--0-----------------0--0--2--||?4?--
|--0--0--------2--0--2------------0--0-----------------2--0--2--||?4?--
|--0--0--------3--2--0------------0--0-----------------3--2--0--||?2?--

or  /--Note:( ?x? -> B2 )--/not sure 

(i give it.....) (..see....) D B2               (...follow these pattern....)
B2---------------------D1- <--------------------|------3p2----|-----2-----|
(summer love...)         (..growing ..)         |------3------|-----2-----|
|--3--3----------------------3--3--|            |------2------|-----3-----|
|--3--3----------------------3--3--|            |------0------|-----4-----|
|--0--2----------------------0--2--|            |------0------|-----4-----|
|--0--0----------------------2--0--|            |------0------|-----2-----|
|--3--0----------------------2--0--|                   ^            ^
|--0--2----------------------0--0--|                   D1           B2

chorus: same

(..cause every night....) (..and every g.....)
|--3--3--3--3--3--3--3--3------------3--3--3--|
|--3--3--3--3--3--3--3--3------------3--3--3--|
|--0--2--0--2--0--2--0--2------------0--2--0--|
|--2--0--2--0--0--0--2--0------------2--0--2--|
|--2--0--3--0--2--0--2--0------------2--0--3--|
|--0--0--0--0--3--2--0--0------------0--0--0--|


Tabbed by : Dichoson, Lenard B.
E-mail: dichosonlxp@yahoo.com
Related for On A Lonely Night tab
On A Lonely Night chords by A Rocket To The Moon