Song name
# A B C D E F G H I J K L M N O P Q R S T U V W X Y Z

A Rocket To The Moon - On A Lonely Night tab

"On A Lonely Night" by A Rocket To The Moon


Intro:

e|----------------------------------------0-----------------------------|
B|-----3-------3-------3-------3--------3---3---3------------3-3--------|
G|---0---0---0---0---0---0---0--------0-------0------2-2/4-4-----4/2-0--|
D|-5-------4-------2-------0--------2-----------------------------------|
A|--------------------------------3-------------------------------------|
E|----------------------------------------------------------------------|


Verse 1:

"You were only fifteen..."
e|---------------------------------------------------------------------|
B|------3-------3-------3-------3------3---3---3------------3-3--------|
G|----0---0---0---0---0---0---0---------------------2-2/4-4-----4/2-0--|
D|-/5-------4-------2-------0--------2---2-----------------------------|
A|---------------------------------3---------3-------------------------|
E|---------------------------------------------------------------------|

e|-----------------------------------------0--------0~--|
B|------3-------3-------3-------3--------3---3---3--3~--|
G|----0---0---0---0---0---0---0--------0-------0----2~--|
D|-/5-------4-------2-------0--------2--------------0~--|
A|---------------------------------3----------------0~--|
E|--------------------------------------------------0~--|

"We lay under the stars..."
e|-3--3--3--3---3---3----|
B|-3--3--3--3---3---3----|
G|-0--0--0--2---0---2----|
D|-0--2--2--0---2---0----|
A|-2--0--2--0---3---0----|
E|-3--2--0--0---0---0----|

"You said you could..."
e|-3---x---x---3----|
B|-3---3---3---3----|
G|-0---0---0---2----|
D|-2---0---2---0----|
A|-2---2---3---0----|
E|-0---3---x---0----|


Chorus:

"On a lonely night..."
e|-3--3--3--3--3---3---3--3--3--3-----|
B|-3--3--3--3--3---3---3--3--3--3-----|
G|-0--0--0--2--0---2---0--0--0--2-----|
D|-2--0--2--0--2---0---2--0--2--0-----|
A|-3--2--2--0--3---0---3--2--2--0-----|
E|-0--3--0--0--0---0---0--3--0--0-----|

"Every night is lonely..."
e|-3-3-3-3--3-3-3~-----|
B|-3-3-3-3--3-3-3~-----|
G|-0-0-0-0--0-0-2~-----|
D|-0-0-2-0--0-0-0~-----|
A|-3-2-0-2--3-2-0~-----|
E|-x-x-x-x--x-x-x~-----|


Post-Chorus:

e|-3--3--3--3--3--3---|
B|-3--3--3--3--3--3---|
G|-0--0--0--2--0--2---|
D|-0--2--2--0--3--0---|
A|-2--0--2--0--2--0---|
E|-3--2--0--0--0--0---|


Verse 2:

"We are older now..."
e|-3--3--3--3--3--3---|
B|-3--3--3--3--3--3---|
G|-0--0--0--2--0--2---|
D|-0--2--2--0--3--0---|
A|-2--0--2--0--2--0---| x2
E|-3--2--0--0--0--0---|

"I wish I could lie..."
e|-3---x---x---3----|
B|-3---3---3---3----|
G|-0---0---0---2----|
D|-2---0---2---0----|
A|-2---2---3---0----|
E|-0---3---x---0----|

"If I listen to our..."
e|-3--3--3-|
B|-3--3--3-|
G|-0--0--2-|
D|-2--0--0-|
A|-3--2--0-|
E|-0--3--0-|


Post-Chorus:

e|-3--3--3--3--3--3---|
B|-3--3--3--3--3--3---|
G|-0--0--0--2--0--2---|
D|-0--2--2--0--3--0---|
A|-2--0--2--0--2--0---|
E|-3--2--0--0--0--0---|


Bridge:

"It's been forever..."
e|-0--0--3-3-3--|
B|-1--3--3-3-3--|
G|-2--0--0-0-0--|
D|-2--4--0-2-2--|
A|-0--5--2-0-2--| x3
E|-0--0--3-2-x--|

"I'd give it all away..."
|-0--3--3-3-3--3-3-3--|
|-1--3--3-3-3--3-3-3--|
|-2--2--0-0-2--0-0-2--|
|-0--0--2-0-0--2-0-0--|
|-3--0--3-2-0--3-2-0--|
|-0--0--0-3-0--0-3-0--|


Ending Chorus:

"Every night is lonely..."  "And every guy would..."
e|-3-3-3-3--3-3-3--3-3-3-3--3--3---3~-----|
B|-3-3-3-3--3-3-3--3-3-3-3--3--3---3~-----|
G|-0-0-0-0--0-0-2--0-0-0-0--0--2---0~-----|
D|-0-0-2-0--0-0-0--0-0-2-0--2--0---3~-----|
A|-3-2-0-2--3-2-0--3-2-0-2--2--0---2~-----|
E|-x-x-x-x--x-x-x--x-x-x-x--x--x---0~-----|
Tap to rate this tab
# A B C D E F G H I J K L M N O P Q R S T U V W X Y Z