Song name
# A B C D E F G H I J K L M N O P Q R S T U V W X Y Z

A Rocket To The Moon - Wherever You Go tab

Tabbed by: @Al_Messi

Capo 4th

Intro and Verse

e|------0h2-0-------------------0h2-0---------------------------------------|
B|------------3-----3-----3-----------3-----3-----3-------------------------|
G|----2-----------0-----0-----2-----------0-----0---------------------------|
D|--0-----------------------0-----------------------------------------------|
A|--------------2-----0-----------------------0-----------------------------|
E|--------------------------------------3-----------------------------------|

e|------0h2-0---------------------0-----7h10-10h12-10-----------------------|
B|------------3-----3-----3-----3-------------------------------------------|
G|----2-----------0-----0-----0---------------------------------------------|
D|--0-----------------------------------------------------------------------|
A|--------------2-----0-------------0---------------------------------------|
E|--------------------------3-----------------------------------------------|

Chorus

            G                A
Wherever I go, wherever I'll be
           D                              Bm
Oh I just hope that you're thinkin' 'bout me
             G              A                  D
And that you don't doubt my love if you're lonely
             G                A
Wherever you go, whatever you see
             D                   Bm
You're not alone, you never will be
             G                  A
Oh baby just know, wherever you go
                  D    D
That's where I'll be
Tap to rate this tab
# A B C D E F G H I J K L M N O P Q R S T U V W X Y Z