Song name
# A B C D E F G H I J K L M N O P Q R S T U V W X Y Z

A Rotterdam November - Love Is Acoustic tab

This is my first attempt at tabbing a song out. Let me know what you think.


Intro and Verse

E|-----------------------------------------------------|
B|-----------------------------------------------------|
G|-----------------------------------------------------|
D|--9-9-9-9--11-12--5-5-5-5--7-7-7-7--9-x-9-x-9-x-9-9--|
A|--9-9-9-9--11-12--5-5-5-5--7-7-7-7--9-x-9-x-9-x-9-9--|
E|--7-7-7-7--9--10--3-3-3-3--5-5-5-5--7-x-7-x-7-x-7-7--|x3

Prechorus
E|-----------------------------------------------------|
B|-----------------------------------------------------|
G|-----------------------------------------------------|
D|--2-4------------------5--2--------------------------|
A|------2--5-4-2--x2-----5--2--------------------------|
E|-----------------------3--0--------------------------|

Chorus
E|-----------------------------------------------------|
B|-----------------------------------------------------|
G|-----------7-7-7-7-----------------------------------|
D|--9-9-9-9--7-7-7-7--2-2-2-2--5-5-5-5-----------------|
A|--9-9-9-9--5-5-5-5--2-2-2-2--5-5-5-5-----------------|
E|--7-7-7-7-----------0-0-0-0--3-3-3-3-----------------|

Verse 2
E|-----------------------------------------------------|
B|-----------------------------------------------------|
G|-----------------------------------------------------|
D|--9-9-9-9--11-12--5-5-5-5--7-7-7-7--9-x-9-x-9-x-9-9--|
A|--9-9-9-9--11-12--5-5-5-5--7-7-7-7--9-x-9-x-9-x-9-9--|
E|--7-7-7-7--9--10--3-3-3-3--5-5-5-5--7-x-7-x-7-x-7-7--|x3

Prechorus
E|-----------------------------------------------------|
B|-----------------------------------------------------|
G|-----------------------------------------------------|
D|--2-4------------------5--2--------------------------|
A|------2--5-4-2-x2------5--2--------------------------|
E|-----------------------3--0--------------------------|

Chorus
E|-----------------------------------------------------|
B|-----------------------------------------------------|
G|-----------7-7-7-7-----------------------------------|
D|--9-9-9-9--7-7-7-7--2-2-2-2--5-5-5-5-----------------|
A|--9-9-9-9--5-5-5-5--2-2-2-2--5-5-5-5-----------------|
E|--7-7-7-7-----------0-0-0-0--3-3-3-3-----------------|x2

Post Chorus

E|-----------------------------------------------------|
B|-----------------------------------------------------|
G|-----------------------------------------------------|
D|--5-5-5-5--2-2-2-2-----------------------------------|
A|--5-5-5-3--2-2-2-2-----------------------------------|
E|--3-3-3-3--0-0-0-0-----------------------------------|x3

Bridge

E|-----------------------------------------------------|
B|-----------------------------------------------------|
G|--7-7-7-7--4-4-4-4-----------------------------------|
D|--7-7-7-7--4-4-4-4--5-5-5-5-7-7-7-7-----------------|
A|--5-5-5-5--2-2-2-2--5-5-5-5--7-7-7-7-----------------|
E|--------------------3-3-3-3--5-5-5-5-----------------|x6

Modified Chorus

E|-----------------------------------------------------|
B|-----------------------------------------------------|
G|--7-7-7-7--4-4-4-4-----------------------------------|
D|--7-7-7-7--4-4-4-4--5-5-5-5-7-7-7-7-----------------|
A|--5-5-5-5--2-2-2-2--5-5-5-5--7-7-7-7-----------------|
E|--------------------3-3-3-3--5-5-5-5-----------------| x2


End
E|-----------------------------------------------------|
B|-----------------------------------------------------|
G|--7--------------------------------------------------|
D|--7--------------------------------------------------|
A|--5--------------------------------------------------|
E|-----------------------------------------------------|
Tap to rate this tab
# A B C D E F G H I J K L M N O P Q R S T U V W X Y Z